Guitar Tabs, Chords and Lyrics


Passive Aggressive   Placebo



Placebo Guitar Tablature
Song: Passive Aggressive
Release: "Black Market Music"

Tabbed By Scott Andrews (scott@thebsh.com)

Tuning (Thickest to Thinest)

F#, Bb, Eb, G#, C, C.

Intro:
* emphasis on these notes

c  ----------------------------------------
C  ----------------------------------------
G# ----------------------------------------
Eb ----------------------------------------
Bb -15-15-15-15-15-15-15-------------------
F# ----------------------0-0--0-0-0-0-0-0--  (X4)
    *     *      *     * *    *   *   *

"It's in your reach" part
F  ---------------------------------------------------------------------------------------------
C  ---------------------------------------------------------------------------------------------
G# ---------------------------------------------------------------------------------------------
Eb ---------------------------------------------------------------------------------------------
Bb -15\-12-12-12-12-12-10-12-12/-15-12-10-10-10-12-12-10-12-12-12-12-12-10-12-10-7-7-7-7-7-7-7-- (X2)
F# --------------------------------------------------------------------------------------------- 

"If you deny it" part
() note in brackets: harmonic
C  ----------------------------------------------
C  ----------------------------------------------
G# ----------------------------------------------
Eb ----------------------------------------------
Bb -8-8-8-8-8-10-8-7-----------------------------
F# -0-0-0-0-0-0--0-0-(7)-(7)-(7)-(7)-(7)-(7)-(7)- 
Chorus: ("Everytime I rise I see you falling") part

C  ------------------------------------------------------------------------
C  ------------------------------------------------------------------------
G# ------------------------------------------------------------------------
Eb -------7-7--7-7-7----------------7-7--7-7-7--7-7-7-7--------------------
Bb ------------------7--7-7-7-7-7-7----------------------------------------
F# -5-5-5----------------------------------------------5-5-5-5-5-5-5-5-----
C  -------------------------------------------------------------------------------------------
C  -------------------------------------------------------------------------------------------
G# -------------------------------------------------------------------------------------------
Eb -------------------------------------------------------------------------------------------
Bb -------------------10-10-10--8--8-8-8-8-8-8-8-10-10-10-10-10-10-10-12-12-12-12-12-12-12-12-
F# -0-0--0-0-0-0--0-0-------------------------------------------------------------------------
				       				     (-7--7--7--7--7--7--7--7-)
							              use this on the "Find me space,
								      find me space" part.

Chorus:
Bill plays this live (using an e-bow)
Halfway through 2nd chorus. 
All of last chorus.

C  -------------------------------------------------------------
C  -------------------------------------------------------------
G# -7/-14--10--9-----/14--10--9-----/14--10--9---/14--10--9-----
Eb ---------------8-------------8-7------------7-------------7--
Bb -------------------------------------------------------------
F# -------------------------------------------------------------
								         



Important: The song above is NOT stored on the Chordie server. The original song is hosted at www.xguitar.com. Chordie works as a search engine and provides on-the-fly formatting. Chordie does not index songs against artists/composers will. To remove this song please click here.

This song is displayed as text-only. Transposing and tuning is only available for chordpro-songs.

Login - add to songbook

Rating click stars to rate

Layout
Accuracy

SHARE PAGE  




You need to log in to post comments