Guitar Tabs, Chords and Lyrics


Hallelujah   Rammstein



Hallelujah By Rammstein
Album:  Mutter
Transcribed By  Tier76@aol.com

Intro/Verse
                                                                  
E||---------------------|------------------|---------------------|------------------|
B||---------------------|------------------|---------------------|------------------|
G||---------------------|------------------|---------------------|------------------|
D||--5----5----2--------|------------------|--3----3----2--------|------------------|
A||--3----3----2--------|------------------|--1----1----2--------|------------------|
E||--3----3----0--------|------------------|--1----1----0--------|------------------|

Pre-Chorus
                                                                               
|--------------------------|--------------------------------|
|--------------------------|--------------------------------|
|--------------------------|--------------------------------|
|--5----5----2----------2--|----------2----------2----------|
|--3----3----2----------2--|----------2----------2----------|
|--3----3----0--0-0-0-0-0--|--0-0-0-0-0--0-0-0-0-0--0-0-0-0-|
                                                            
--------------------------|--------------------------------|
--------------------------|--------------------------------|
--------------------------|--------------------------------|
--3----3----2----------2--|----------2----------2----------|
--1----1----2----------2--|----------2----------2----------|
--1----1----0--0-0-0-0-0--|--0-0-0-0-0--0-0-0-0-0--0-0-0-0-|
Chorus 
                                                                    
|---------------------|-----------------------|----------------------|
|---------------------|-----------------------|----------------------|
|---------------------|-------------5----5----|--2-------------------|
|--5----5----2--------|-------------5----5----|--2----------2--2--2--|
|--3----5----2--------|----2--2--2--3----3----|--0----------0--0--0--|
|--3----3----0--------|----0--0--0------------|----------------------|
                                                                     
---------------------|-----------------------|----------------------|
---------------------|-----------------------|----------------------|
--5----5-------------|-------------4----4----|----------------------|
--5----5----5--------|-------------4----4----|--3-------------------|
--3----3----5--------|----5--5--5--2----2----|--3----------3--3--3--|
------------3--------|----3--3--3------------|--1----------1--1--1--|
                                                                  
---------------------|---------------------|---------------------|
---------------------|---------------------|---------------------|
---------------------|--5----5----2--------|--5----5-------------|
--5----5----2--------|--5----5----2--------|--5----5----5--------|
--3----3----2--------|--3----3----0--------|--3----3----5--------|
--3----3----0--------|---------------------|------------3--------|
                                                 
---------------------|
---------------------|
--4----4-------------|
--4----4----3--------|
--2----2----3--------|
------------1--------|
End Riff
                                  
|--------------------------|--------------------------------||
|--------------------------|--------------------------------||
|--------------------------|--------------------------------||
|--3----3----2----------2--|----------2----------2----------||
|--1----1----2----------2--|----------2----------2----------||
|--1----1----0--0-0-0-0-0--|--0-0-0-0-0--0-0-0-0-0--0-0-0-0-||


Important: The song above is NOT stored on the Chordie server. The original song is hosted at www.xguitar.com. Chordie works as a search engine and provides on-the-fly formatting. Chordie does not index songs against artists/composers will. To remove this song please click here.

This song is displayed as text-only. Transposing and tuning is only available for chordpro-songs.

Login - add to songbook

Rating click stars to rate

Layout
Accuracy

SHARE PAGE  




You need to log in to post comments