""; ?> 11th Hour by Rancid - guitar chords, guitar tabs and lyrics - chordie

11th Hour

Rancid

|--------------------|

|--------------------| X7

|------5-5-----------|

|-5-5--3-3--5-5------|

|-3-3-------3-3--5-5-| 

|----------------3-3-|

|-------|

|-------|

|-------|

|-------|

|-----------------------------------|

|-----------------------------------|

|-----------------------------------|

|-----------------------------------|

|-----------------------------------|

|------|

|------|

|------|

|------|

|--------------------|

|--------------------| X3

|------5-5-----------|

|-5-5--3-3--5-5------|

|-3-3-------3-3--5-5-| 

|----------------3-3-|

|------|

|------|

|------|

|------|

|-------------------------------|

|-------------------------------|

|-------------------------------|

|-----5-------5-------5---2-----|

|-3---3---3---3---3---3---0---5-|

|-1-------1-------1-----------3-|

|--------------------|

|--------------------| X5

|------5-5-----------|

|-5-5--3-3--5-5------|

|-3-3-------3-3--5-5-| 

|----------------3-3-|

|-----------------------------------|

|-----------------------------------|

|-----------------------------------|

|-----------------------------------|

|-----------------------------------|

|------|

|------|

|------|

|------|

|--------------------|

|--------------------| X3

|------5-5-----------|

|-5-5--3-3--5-5------|

|-3-3-------3-3--5-5-| 

|----------------3-3-|

|------|

|------|

|------|

|------|

|-------------------------------|

|-------------------------------|

|-------------------------------|

|-----5-------5-------5---2-----|

|-3---3---3---3---3---3---0---5-|

|-1-------1-------1-----------3-|

|---------------|

|---------------|

|-----5-4-------| X2

|-5---3-2-------|

|-3---------3---|

|-----------1---|

|---1---1---1---1-|

|--1---1---1---1--| X2

|-4---4---4---4---|

|-----------------|

|-----------------|

|-----------------|

|--------------------------|

|--------------------------|

|-4-5-4--4-5-4--4-5-4--4-7-| 

|-2-3-2--2-3-2--2-3-2--2-5-|

|--------------------------|

|--------------------------|

|--------------------|

|--------------------| X3

|------5-5-------7-7-|

|-5-5--3-3--5-5--5-5-|

|-3-3-------3-3------| 

|--------------------|

|------|

|------|

|------|

|------|

|----------------------------------------------------------|

|----------------------------------------------------------|

|----------------------------------------------------------|

|-----5-------5-------5---2-------5---2-------5--2-------5-|

|-3---3---3---3---3---3---0---5---3---0---5---3--0---5---3-|

|-1-------1-------1-----------3-----------3----------3-----|

|---------|

|---------|

|---------|

|---------|

|---------|

|-------------------------------------------|

|-------------------------------------------| 

|------5-5----------------5-5---------------|

|-5-5--3-3--5-5------5-5--3-3--5-5------5-5-|

|-3-3-------3-3--5-5-3-3-------3-3--5-5-3-3-| 

|----------------3-3----------------3-3-----|

|------------------------------------|

|------------------------------------|

|------------------------------------|

|------------------------------------|

|------------------------------------|


THE END
_________________________________________________________________
THE 11th HOUR (Version B)
C G F F* A
e---X----X----X----X-----X----
B---X----X----X----X-----X----
G---5----X----X----10----X----
D---5----5----3----10----7----
A---3----5----3----8-----7----
E---X----3----1----X-----5----

CC F*F* CC GG
Guitar 1: C F* CC
Guitar 2: CC F*F* CC GG
Riff A:
e-----------------------------
B-----------------------------
G-5-4-5-4-5-4-5-4-5-4-5-4-5-7-
D-----------------------------
A-----------------------------
E-----------------------------

C F* C G C F* C G
Hey little sister do you know what time it was
C F* C G
When you finally seen all your broken dreams
F... G...
Come crashing down your door
C F* C G C F* C G
They demand an answer and they demand it quick
C F* C G
When the questions fade and all the wasted days
F... G
Come crawling back for more and I said
 FC
 Do you know where the power lies
 FC
 And who pulls the strings
 FC
 Do you know where the power lies
 AGC
It starts and ends with you
C F* CC (under riff A)
C F* C G C F* C G
The face of isolation well that's what you recognize
C F* C G
And what you can't get straight is a lonely place
F... G...
And all you do despise
C F* C G C F* C G
Boredom is for sale now and helplessness you feel
C F* C G
Well it's a wounded dove and the hawks are above
F... G
For splattering reel to reel and I said
 FC
 Do you know where the power lies
 FC
 And who pulls the strings
 FC
 Do you know where the power lies
 AGC
It starts and ends with you
C F* CC (under riff A)
(don't play)
I was almost over and my world was almost gone
And in a sudden rush I could almost touch the
F... G...
Things that I'd done wrong
C F* C G C F* C G
My jungle's made of concrete and through the silence I can feel
C F* C G
That my aim is true and I will walk on through
F... G
These mountains made of steel and I said
 FC
 Do you know where the power lies
 FC
 And who pulls the strings
 FC
 Do you know where the power lies
 AGC
It starts and ends with you
C F* CC (under riff A)


A C F G
variations - click chord images
Transpose chords:
Tuning:
Cool service:
View: Size:
A  A  A
Rating:
Layout:
  • Currently 2.8/5 Stars.
  • 1
  • 2
  • 3
  • 4
  • 5
 
Accuracy:
  • Currently 2.7/5 Stars.
  • 1
  • 2
  • 3
  • 4
  • 5
 
click stars to rate
Chordie recommends:
Learn how to play guitar at JamPlay.com
Songbook:
Login to add this song to your songbook
Support the artist
Preview/buy this song
MSN Music
Why this non-profit ad?

 
login to add comments/video/corrections