Guitar Tabs, Chords and Lyrics


Corazon Espinado   Santana

-|----------------------------7-6-----------------------------|


-|--------------------------7------7--------------------------|


-|-----4h7p4---4---------/7----------9--7-9^9^--------9-6-7-9-|

-|-4h7-------7------------------------------------------------|
-|------------------------------------------------------------|
-|------------------------------------------------------------| -|------7h10p7----7------------14-17^r--14-----------14------14----14-- -|-7h10--------10----------/17-------------17--15-17^----17^----17^---- -|--------------------------------------------------------------------- -|--------------------------------------------------------------------- -|--------------------------------------------------------------------- -|--------------------------------------------------------------------- --------------------------------| --17-14-15-17---15-14-14--------| --------------------------16----| --------------------------------| --------------------------------| --------------------------------|
Esa mujer me esta matando
Me a espinado el corazon
-|------------------------|
-|-10----------7----------|
-|-9^--9p7-9-7---7--------|
-|-----------------9------|
-|------------------------|
-|------------------------|

Por mas que trato de olvidarla
Mi alma no da razon
-|-------------------|
-|-------------------|
-|-6-7-9---9p7p6-----|
-|--------------9----|
-|-------------------|
-|-------------------|

Mi corazon aplastado
-|-5-------------------------|
-|---8-7-5---5----7p5h7------|
-|---------7-----------------|
-|---------------------------|
-|---------------------------|
-|---------------------------|

Herido y abandonado
Aber aber
-|--------------|
-|--------------|
-|---4-6-7------|
-|-4------------|
-|--------------|
-|--------------|

tu sabes dime mi amor por favor
Que dolor nos quedo

Chorus:
Ah ah ah corazon espinado
Ah ah ah como me duele el amor
-|-------------------------------------------------|
-|-10^///////-10^///////-10^--10p7---7---7---------|
-|---------------------------------9---9---9^------|
-|-------------------------------------------------|
-|-------------------------------------------------|
-|-------------------------------------------------|

Como duele como duele el corazon
Cuando nostiene entregados
-|--------------|
-|--------------|
-|-6-7-9--------|
-|--------------|
-|--------------|
-|--------------|

Pero no olvides mujer que algun dia diras
Hay ya yay como me duele el amor
-|------------------------------------------|
-|------------------------------------------|
-|---7-7-7------------7---7-----------------|
-|-9^---------------9^--9^--7-9p7-----------|
-|-------------------------------9----------|
-|------------------------------------------|

Chorus:
Ah ah ah corazon espinado
Ah ah ah como me duele el amor
-|--------------------------------7-----------------------|
-|-10^-----10--7--10-7h10p7---7-----10p7-----7------------|
-|--------------------------9---9^-------9p7---7----------|
-|-----------------------------------------------9--------|
-|----this is the best I could figure this one out...-----|
-|--------------------------------------------------------|
-|------------------------------------------------------
-|-----------------------17p15-17p15-17p15-17p15-17^----
-|-----7---6----7-6-------------------------------------
-|-9----------------9-9---------------------------------
-|------------------------------------------------------
-|------------------------------------------------------

ah ah ah...


-12----12-12------------------------------------------|
----17^------15-17p15------15--14----15-14------------|
-----------------------16------------------16-16----\-|
------------------------------------------------------|
------------------------------------------------------|
------------------------------------------------------|

ah ah ah...

-|-------------------------------2////////*-------|
-|-------------------------------3////////*-------|
-|------------------------------------------------|
-|------------------------------------------------|
-|-/9-9-9-----------------------------------------|
-|------------------------------------------------|

*slide up while rapid picking

-|----------------------------------------------------------
-|-12----------------------------14br-12-----12//////-------
-|---------14-11----11-11----------------14^----------14p11-
-|---------------14^----------------------------------------
-|----------------------------------------------------------
-|----------------------------------------------------------

solo


---------------------|
---------------------|
---------------------|
-14^-14---12h14------|
---------------------|
---------------------|
-|----------------------------------------------------------14///////-
-|-12-15-15-12-15-12-15-15-12---14-17-17-14-17-14-17-17-14------------
-|--------------------------------------------------------------------
-|--------------------------------------------------------------------
-|--------------------------------------------------------------------
-|--------------------------------------------------------------------
-14t15*----14-15-14-15-14-15-14-15-17-15-14-17^-|
------------------------------------------------|
------------------------------------------------|
------------------------------------------------|
------------------------------------------------|
------------------------------------------------|

*trill about maybe 8 times. Listen to song to hear it.


-|-17^-----17-14----14-14----
-|---------------17^---------
-|---------------------------
-|---------------------------
-|---------------------------
-|---------------------------
-17^-17^-17^rp14--14-------------14---------------|
----------------17--17b-17p15h17---15-17--15p14---|
-----------------------------------------------16-|
--------------------------------------------------|
--------------------------------------------------|
--------------------------------------------------|
-|----------------------------------------------------------------
-|-15p14p12-15p14p12-15p14p12-15p14p12-15p14p12-15p14p12-15p14p12-
-|----------------------------------------------------------------
-|----------------------------------------------------------------
-|----------------------------------------------------------------
-|----------------------------------------------------------------
-------------------------------------------------------|
-17p15p14-17p15p14-17p15p14-17p15p14-17p15p14-17p15p14-|
-------------------------------------------------------|
-------------------------------------------------------|
-------------------------------------------------------|
-------------------------------------------------------|
-|-2////////////*--------------------------------------------|
-|-3////////////*--------------------------------------------|
-|-----------------------------------------------------------|
-|-----------------------------------------------------------|
-|-----------------------------------------------------------|
-|-----------------------------------------------------------|                   

*turbo pick and slide all the way up the fretboard


Como me duele el olvido
-|----------------------------------------|
-|----------------------------------------|
-|----------------------------------------|
-|-14-12-11-----------11-11---------------|
-|-----------14-12-14---------------------|
-|----------------------------------------|


Como duele el corazon
-|---7-9---10-9-7----------------|
-|-7----------------7------------|
-|--------------------7----------|
-|----------------------9-7------|
-|-------------------------------|
-|-------------------------------|



Como me duele estar vivo
-|---------------------------------------------------|
-|---------------------------------------------------|
-|----------------------11-12-12-11h12p11------------|
-|-----11-14-14-11---14-------------------14--12-----|
-|-/12------------12---------------------------------|
-|---------------------------------------------------|


Sin tenerte aun lado amor
-|-----------------------------|
-|-----------------------------|
-|-----------------------------|
-|-----------------------------|
-|-/9-9-9-/9-9-9-/9-9-9--------|
-|-----------------------------|


Corazon espinado
-|---------------------------------------------------------7-------
-|-------------7-----------------------------------7---------------
-|-----7--9------7---------7--6----7-6--------/7-9---9---9^--9p7h9-
-|-9---------------9-7-9---------------7---9-----------------------
-|---------------------------------------9-------------------------
-|-----------------------------------------------------------------
----------------7----7----7-7-7-7-7-|
-7--------------7----7----7-7-7-7-7-|
--7--------7-9^---9^---9^-----------|
---9p7h9----------------------------|
------------------------------------|
------------------------------------|
-|---------------------12-----------------------------------------
-|-17^------17-15-17^-----17^--12h15p12-12--15p12-12--15p12-12\---
-|----------------------------------------------------------------
-|----------------------------------------------------------------
-|----------------------------------------------------------------
-|----------------------------------------------------------------
---------------------------------14////////------------14-
-14h17-17--14h17-17--14h17-17----15////////15-14-15-17----
----------------------------------------------------------
----------------------------------------------------------
----------------------------------------------------------
----------------------------------------------------------
-17p14-17p14-17p14-17^--17^-17^-17^-rp14--14----------------|
----------------------------------------17--17^-17p15-------|
------------------------------------------------------------|
------------------------------------------------------------|
------------------------------------------------------------|
------------------------------------------------------------|
-|----------------------------------------------------------------------
-|---------15--15-15-14----17-15-14-------------15--14-----15-14--------
-|-16/////--------------------------14----h16--------------------16-16--
-|-16/////-----------------------------16-------------------------------
-|----------------------------------------------------------------------
-|----------------------------------------------------------------------
--------------------------------------------------------------------|
----------------------12--------------------------------------------|
----------11----------------------11-----------------11-------------|
----12-14----14----14^---14p12h14---12---------12-12----14----12h14-|
-14-----------------------------------14----14----------------------|
--------------------------------------------------------------------|
-|----7/////----9/////----10/////----12//-14-14----14----14----14-----
-|-10^-------12^-------13^--------15^-----------17^---17^---17^---17^-
-|--------------------------------------------------------------------
-|--------------------------------------------------------------------
-|--------------------------------------------------------------------
-|--------------------------------------------------------------------
-14-15^-----------14---------------------------------------------|
--------17-15-17^---15------15-------15-------14h17-17-14h17-17--|
----------------------16-16----16-16----16-16--------------------|
-----------------------------------------------------------------|
-----------------------------------------------------------------|
-----------------------------------------------------------------|



[Bm]Esa mujer me est[F#7]a matando
[Bm]Me a espinado e[F#7]l corazon
[Bm]Por mas que trato[F#7] de olvidarla
[Bm]Mi alma no [F#7]da razon
[Bm]Mi corazon[F#7] aplastado
[Bm]Herido y aban[F#7]donado
[Bm]Aber aber tu sabes[F#7] dime mi amor por favor
[Bm]Que dolor no[F#7]s quedo
Chorus:

[Bm]Ah ah [F#7]ah corazon espinado    [Bm]    [F#7]

[Bm]Ah ah [F#7]ah como me duele el amo[Bm]r   [F#7]
Como duele como duele el corazon
Cuando nostiene entregados
Pero no olvides mujer que algun dia diras
Hay ya yay como me duele el amor

[Em]Como me duele el olvid[Bm]o

[Em]Como duele el corazon [Bm]
[D]Como me duele estar v[A]ivo
[Em]Sin tenerte aun lado amor      [F#]
Corazon espinado


Important: The song above is NOT stored on the Chordie server. The original song is hosted at www.xguitar.com. Chordie works as a search engine and provides on-the-fly formatting. Chordie does not index songs against artists/composers will. To remove this song please click here.

Text color:
Chord color:
Chord grids: 
Font size:    
Page size: 

A Bm D Em F# F#7
variations - click chord images

Login - add to songbook

Transpose chords

Tuning

Rating click stars to rate

Layout
Accuracy

SHARE PAGE  




You need to log in to post comments