At Your Funeral

Saves The Day


At Your Funeral Tabbed by: Craig "Hott Pants" Sauers Tuning: Standard
*= mute ~= hold
Intro "This song will become..."
----------------------|-----------------------| ----------------------|-------------7---------| -5~--4~---------------|-5~--4~----7-----------| -----------5~----3~---|---------5--------3-5-7| ----------------------|-----------------------| ---------0----4-------|-------0--------4------|
continued
-3~-----------------------|----------------| -2~--5~--------7----------|----------------| -3~--6~------7------------|---------7~-----| -0~--7~----5---------3-5-7|-7~--5~--7~--7~-| --------------------------|-7~--5~--5~--7~-| ---------0---------4------|-5~--3~------5~-|
Prechorus "And at your funeral..."
-3--3------| -3--2--2---| -0--3--2---| -0--0--2---| -2-----0---| -3---------|
Verse "This song will become..."
-3-3-3*-3-3-3----------------------------3-3-3*-3-3-3| -2-2-2*-2-2-2-2-2-2*-2-2-2--8-8-8*-8-8-8-3-3-3*-3-3-3| -3-3-3*-3-3-3-2-2-2*-2-2-2--9-9-9*-9-9-9-0-0-0*-0-0-0| -0-0-0*-0-0-0-2-2-2*-2-2-2--9-9-9*-9-9-9-0-0-0*-0-0-0| X2 --------------0-0-0*-0-0-0--7-7-7*-7-7-7-2-2-2*-2-2-2| -----------------------------------------3-3-3*-3-3-3|
Prechorus "Or would you burn up..."
-3--3------| -3--2--2---| -0--3--2---| -0--0--2---| -2-----0---| -3---------|
Chorus: "And at your funeral..." Guitar 1
-3-3----- -3-2-2--- -0-3-2--- -0-0-2--- X4 -2---0--- -3-------
guitar 2... they play the same chords but after 2 beats of the A chord they play this part...
--------------
-------------- -4/6-4/6-4-2-0 -------------- -------------- --------------
Verse again X2 "And you can bet..."
-3-3-3*-3-3-3----------------------------3-3-3*-3-3-3| -2-2-2*-2-2-2-2-2-2*-2-2-2--8-8-8*-8-8-8-3-3-3*-3-3-3| -3-3-3*-3-3-3-2-2-2*-2-2-2--9-9-9*-9-9-9-0-0-0*-0-0-0| -0-0-0*-0-0-0-2-2-2*-2-2-2--9-9-9*-9-9-9-0-0-0*-0-0-0| X2 --------------0-0-0*-0-0-0--7-7-7*-7-7-7-2-2-2*-2-2-2| -----------------------------------------3-3-3*-3-3-3|
Prechorus again "With the apple in my mouth..."
-3--3------| -3--2--2---| -0--3--2---| -0--0--2---| -2-----0---| -3---------|
Chorus X4
-3-3-----| -3-2-2---| -0-3-2---| -0-0-2---| X4 -2---0---| -3-------|
--------------| --------------| -4/6-4/6-4-2-0| --------------| --------------| --------------|
Ending
Guitar 1 plays the same chorus part X4 Guitar 2 plays this...
------------------------ -12-10------------------ -------11-9----9-------- ------------12---12-11-- ------------------------ ------------------------
End with the prechorus part played twice
-3--3------| -3--2--2---| -0--3--2---| -0--0--2---| -2-----0---| -3---------|
end on A
-------- ---2---- ---2---- ---2---- ---0---- --------











variations - click chord images
Transpose chords:
Tuning:
Cool service:
View: Size:
A  A  A
Rating:
Layout:
  • Currently 0/5 Stars.
  • 1
  • 2
  • 3
  • 4
  • 5
 
Accuracy:
  • Currently 3.5/5 Stars.
  • 1
  • 2
  • 3
  • 4
  • 5
 
click stars to rate
Chordie recommends:
Learn how to play guitar at JamPlay.com
Songbook:
Login to add this song to your songbook
Support the artist
Preview/buy this song
MSN Music
Why this non-profit ad?

 
login to add comments/video/corrections