Guitar Tabs, Chords and Lyrics


F**k It    Seether



Author/Artist: Seether
Title: *** It
Album: Disclaimer
Transcribed by: Alex Young
Email: SaintAnger5@yahoo.com

Dropped D-Half step down

-|--------------------------------------------------------------------------|-
-|--------------------------------------------------------------------------|-
-|--------------------------------------------------------------------------|-
-|--------------------------------------------------------------------------|-
-|----9----9----9---10----10p9------9----9----9---10---10/12-12-------------|-
-|--9----9----9---9-----9------7--9----9----9---9----9----------------------|-
  Intro/Verse                                                                 

-|--------------------------------------------------------------------------|-
-|--------------------------------------------------------------------------|-
-|-----------------------------------------------------------------7x7--7/--|-
-|--0-1-1-0-6-5-0-/8--0-1-1-0-6-5-0-/8--0-1-1-0-6-5-0-/8--0-1-1-0-----------|-
-|--0-1-1-0-6-5-0-/8--0-1-1-0-6-5-0-/8--0-1-1-0-6-5-0-/8--0-1-1-0--5x5--5/--|-
-|--0-1-1-0-6-5-0-/8--0-1-1-0-6-5-0-/8--0-1-1-0-6-5-0-/8--0-1-1-0-----------|-
  Chorus 2x's...second time palm mute                                         

-|--------------------------------------------------------------------------|-
-|--------------------------------------------------------------------------|-
-|--------------------------------------------------------------------------|-
-|--------------------------------------------------------------------------|-
-|----9----9----9---10----10p9------9----9----9---10---10/12-12-------------|-
-|--9----9----9---9-----9------7--9----9----9---9----9----------------------|-
  Verse                                                                       

-|--------------------------------------------------------------------------|-
-|--------------------------------------------------------------------------|-
-|-----------------------------------------------------------------7x--7/---|-
-|--0-1-1-0-6-5-0-/8--0-1-1-0-6-5-0-/8--0-1-1-0-6-5-0-/8--0-1-1-0-----------|-
-|--0-1-1-0-6-5-0-/8--0-1-1-0-6-5-0-/8--0-1-1-0-6-5-0-/8--0-1-1-0--5x--5/---|-
-|--0-1-1-0-6-5-0-/8--0-1-1-0-6-5-0-/8--0-1-1-0-6-5-0-/8--0-1-1-0-----------|-
                                                                              

-|--------------------------------------------------------------------------|-
-|--------------------------------------------------------------------------|-
-|--------------------------------------------------------------------------|-
-|--------------------------------------------------------------------------|-
-|--------------------------------------------------------------------------|-
-|--000--0--0-223--000--0--0-223--000--0--0-223--000--0-3-2-1---------------|-
  Breakdown                                                                   

-|--------------------------------------------------------------------------|-
-|--------------------------------------------------------------------------|-
-|--------------------------------------------------------------------------|-
-|--000--0--0-223--000--0--0-223--000--0--0-223--000--0-3-2-1---------------|-
-|--000--0--0-223--000--0--0-223--000--0--0-223--000--0-3-2-1---------------|-
-|--000--0--0-223--000--0--0-223--000--0--0-223--000--0-3-2-1---------------|-
  Agro version                                          . .                  

-|--------------------------------------------------------------------------|-
-|--------------------------------------------------------------------------|-
-|----------------------------------------------------------------7x7--7/---|-
-|--0-1-1-0-6-5-0-/8--0-1-1-0-6-5-0-/8--0-1-1-0-6-5-0-/8--0-1-1-0-----------|-
-|--0-1-1-0-6-5-0-/8--0-1-1-0-6-5-0-/8--0-1-1-0-6-5-0-/8--0-1-1-0-5x5--5/---|-
-|--0-1-1-0-6-5-0-/8--0-1-1-0-6-5-0-/8--0-1-1-0-6-5-0-/8--0-1-1-0-----------|-
                                                                              

-|--------------------------------------------------------------------------|-
-|--------------------------------------------------------------------------|-
-|------------------3------------------3------------------3-----------------|-
-|--0-0-0-1p0-1p0-0----0-0-0-1p0-1p0-0----0-0-0-1p0-1p0-0----0-0-0-1p0-00-00|-
-|--0-0-0-1p0-1p0-0-1--0-0-0-1p0-1p0-0-1--0-0-0-1p0-1p0-0-1--0-0-0-1p0-00-00|-
-|--0-0-0-1p0-1p0-0----0-0-0-1p0-1p0-0----0-0-0-1p0-1p0-0----0-0-0-1p0-00-00|-
  Ending.         .    . . .         .    . . .         .    . . .     .. ..


Important: The song above is NOT stored on the Chordie server. The original song is hosted at www.xguitar.com. Chordie works as a search engine and provides on-the-fly formatting. Chordie does not index songs against artists/composers will. To remove this song please click here.

This song is displayed as text-only. Transposing and tuning is only available for chordpro-songs.

Login - add to songbook

Rating click stars to rate

Layout
Accuracy

SHARE PAGE  




You need to log in to post comments