Guitar Tabs, Chords and Lyrics
Server problems seems to be fixed. Chordie has been experiencing problems with songs disappearing. These issues now seems to be fixed, but still verifying the fix. If you find anything strange, please email admin@chordie.com.


Zero  Hawk Nelson

Song: Zero
Artist: Hawk Nelson
Album: Smile, Its the End of the World
This... is right. all of it.
Verse:
[C] [G] [F] [G]  
 
 e -x--x--x--x--
 B -2--2--2--2--
 G -0--0--0--0--
 D -0--0--0--0-- You need to figure out the strum
 A -3--x--x--x-- patterns yourself, its really easy tho.
 E -x--3--1--3-- 

Pre-Chorus:
All palm-muted
[A] [G] [C] [F]  
 
 e ------------
 B ------------
 G -------5----
 D -7--5--5--3-
 A -7--5--3--3-
 E -5--3-----1- 

Chorus:
[C] [G] [F] [G]  
 
 e ------------
 B ------------
 G -5----------
 D -5--5--3--5- x 2
 A -3--5--3--5-
 E ----3--1--3- 

Bridge:
Some palm-muted, some not. You have to listen to it, it is hard to explain.
 
 e --------------------------------------
 B -------------8-8-8--------------------
 G -0-0-0-5-5-5-------5-5-5-5-5-5h7p5----
 D -------------------------------------- x 6
 A --------------------------------------
 E --------------------------------------
 e --------------------------------------
 B -------------8-8-8-------------8-8-8--
 G -0-0-0-5-5-5-------0-0-0-5-5-5--------
 D -------------------------------------- x 1
 A --------------------------------------
 E --------------------------------------
 e --------------------------------------
 B -------------5-5-5-------5h6p5--------
 G -0-0-0-5-5-5-------5-5-5--------------
 D -------------------------------------- x 1
 A --------------------------------------
 E --------------------------------------
 e --------------------------------------
 B -------------8-8-8--------------------
 G -0-0-0-5-5-5-------5-5-5-5-5-5h7p5----
 D -------------------------------------- x 2
 A --------------------------------------
 E --------------------------------------
 e --------------------------------------
 B -------------8-8-8-------------8-8-8--
 G -0-0-0-5-5-5-------0-0-0-5-5-5--------
 D -------------------------------------- x 1
 A --------------------------------------
 E -------------------------------------- 

Heres the solo:
 
 e --------------------------------------
 B --------------------------------------
 G -5h7p5---7~-5h7p5---7/9-5~------------
 D -------5----------5-------------------
 A --------------------------------------
 E --------------------------------------
 e --------------------------------------
 B --------------------------------------
 G -5h7p5---7~-4h5p4---------------------
 D -------5----------7-5-7---------------
 A ------------------------5~------------
 E --------------------------------------
 e --------------------------------------
 B --------------------------------------
 G -5h7p5---7~-5h7p5---7/9-5~------------
 D -------5----------5-------------------
 A --------------------------------------
 E --------------------------------------
 e --------------------------------------
 B --------------------------------------
 G -5h7p5---7~-4h5p4--------7/9-7~-7/5-5-
 D -------5----------7-5-7---------------
 A --------------------------------------
 E -------------------------------------- 

~ = bend
Ending Chord:
C with Root at G
e ---
[B] [---]  
[G] [-5-]  
[D] [-5-]  
[A] [-3-]  
[E] [-3-]  
There you go. It took me a whole 2 hours of living in my basement, eating cake
and ice cream and listening to Zero over and over and over again. Hope you are
happy, cause i sure am.
- woot_21

Important: The song above is NOT stored on the Chordie server. The original song is hosted at www.christianguitar.org. Chordie works as a search engine and provides on-the-fly formatting. Chordie does not index songs against artists'/composers' will. To remove this song please click here.

Text color:
Chord color:
Chord grids: 
Font size:    
Page size: 

A B C D E F G
Rate #1 of 9 versions

Jango Player

Login - add to songbook

SHARE PAGE  




You need to log in to post comments