Guitar Tabs, Chords and Lyrics
Major upgrade!! After one year development the new version of Chordie is now online! Please give feedback.


Painted Skulls  Benediction

PAINTED SKULLS - Benediction - Transcend The Rubicon
Rhythm Guitar Transcribed on Bass
Tuning (low - High): D G C F
[A1]  
 
 |---------------------------------------------|--------|
 |---------4---4-----------7---------------4---|--------|
 |-4-4-4-4-4---4---5---4---7-------4-4-4-4-4---|--------|
 |-2-2-2-2-2---2---3---2---5-------2-2-2-2-2---|--------|

pm...... pm...... pm......
[A2]  
 
 |---------------------------------------------|--------|
 |---------4---4---5---4---3---------------4---|--------|
 |-4-4-4-4-4---4---3---2---3-------4-4-4-4-4---|--------|
 |-2-2-2-2-2---2-----------1-------2-2-2-2-2---|--------|

pm...... pm...... pm......
Repeat (A1 + A2) x 2
Repeat A1
[A3]  
 
 |---------------------------------------------|--------|
 |-7---6---5-------------------------------4---|--------|
 |-5---4---3---5---6---7---5-------4-4-4-4-4---|--------|
 |-------------3---4---5---3-------2-2-2-2-2---|--------|

pm...................... pm......
Repeat A1, A2 & A1
A3"
 
 |------------------------------------------------------|
 |-7---6---5--------------------------------------------|
 |-5---4---3---5---6---7---5----------------------------|
 |-------------3---4---5---3----------------------------|

pm......................
B1 (1 & 2) (3)
 
 |-------------------------|-----5-----------|
 |-----3---4-------4---3---|-----5-----------|
 |-----1---2-------2---1---|-----3-----------|
 |-0-----------0-----------|-0---------------|

pm.. pm.. pm..
[B2]  
 
 |-----------------------------------------------------------------|
 |-----3---4-------4---3-------3---4---3---------------------------|
 |-----1---2-------2---1-------1---2---1---3---4---4---4---4-4-4---|
 |-0-----------0-----------0---------------1---2---2---2---2-2-2---|

pm.. pm.. pm.. pm..........................
Repeat (B1 + B2) x 3
C Guitar 1 - Left Track
 
 |-----------------------------------------------------------------|
 |-----------------------------------------------------------------|
 |-----3---4-------4---5-------3---4-------6---5-------7~----------|
 |-0-0-1---2---0-0-2---3---0-0-1---2---0-0-4---3---0---------------|

pm.. pm.. pm.. pm.. pm..
C Guitar 2 - Right Track
 
 |-----------------------------------------------------------------|
 |-----------------------------------------------------2-----------|
 |-----3---4-------4---5-------3---4-------6---5-------2-----------|
 |-0-0-1---2---0-0-2---3---0-0-1---2---0-0-4---3---0---0-----------|

pm.. pm.. pm.. pm.. pm..
Repeat C
Repeat (B1 + B2) x 2
Repeat C x 4
Repeat (B1 + B2) x 2
[D1]  
 
 |-------------------------------------------------|
 |-------------------------------------------------|
 |-------------------------2-2-2-2-2-2-------------|
 |-3-3-3-3-3-3-3-3-3-3-3-3-------------1-1-1-1-1-1-|

pm..............................................
[D2]  
 
 |-------------------------------------------------|
 |-------------------------------------------------|
 |-------------------------2-2-2-2-2-2-1-1-1-1-1-1-|
 |-3-3-3-3-3-3-3-3-3-3-3-3-------------------------|

pm..............................................
Repeat D1, D2 & D1
[D3]  
 
 |-------------------------------------------------|
 |-------------------------------------3-----------|
 |-------------------------2-2-2-2-2-2-1-----------|
 |-3-3-3-3-3-3-3-3-3-3-3-3-------------------------|

pm......................................
Repeat D1
[D4]  
 
 |-------------------------------------------------|
 |-------------------------------------3---3---3---|
 |-------------------------2-2-2-2-2-2-1---1---1---|
 |-3-3-3-3-3-3-3-3-3-3-3-3-------------------------|

pm..................................
E Play 2 Times
 
 |-----------------------------------------------------------------|
 |---------------------------------------------------------5~------|
 |-2-----------5---4~------3-------2-----------5---4-------3~------|
 |-0-----------3---2~------1-------0-----------3---2---------------|

Repeat (D1 + D2) x 4
Repeat (D1 + D4)
Repeat (D1 + D3)
Repeat (B1 + B2) x 4
F Play 2 Times
 
 |-4----------------------|-4----------------------|
 |-4----------------------|-4----------------------|
 |-2----------------3~----|-2----------2-3-4-4-4-3-|
 |--------------0-1-------|------------0-1-2-2-2-1-|

pm.. pm..........
Outro
 
 |-------------------------|
 |-----3---4-------4---3---|
 |-----1---2-------2---1---|
 |-0-----------0-----------|

pm.. pm..
The End.
Erik
 
 ----------------------

erik_heino@hotmail.com

Important: The song above is NOT stored on the Chordie server. The original song is hosted at www.guitaretab.com. Chordie works as a search engine and provides on-the-fly formatting. Chordie does not index songs against artists'/composers' will. To remove this song please click here.

Text color:
Chord color:
Chord grids: 
Font size:    
Page size: 

A2 A3 B2 D2 D3 D4
Rate #1 of 3 versions

Jango Player

Login - add to songbook

SHARE PAGE  




You need to log in to post comments