Guitar Tabs, Chords and Lyrics
Major upgrade!! After one year development the new version of Chordie is now online! Please give feedback.


Down With the Sickness   Disturbed

 
 G-||-------------------------------|
 D-||*-----------------------------*||(4)
 A-||*-----------------------------*||
 D-||--1-1--1-1--1-1--1-1--1-1-1-1--||
 G-||----------------------||-----------||
 D-||----------------------||*---------*||
 A-||----------------------||*---------*||
 D-||-1-4-1-2-1--1-4-1-2-1-||--1-4-1-2--||
 G-||----------------------||-----------||------||
 D-||----------------------||*---------*||------||
 A-||----------------------||*---------*||------||
 D-||-1-4-1-2-1--1-4-1-2-1-||--1-4-1-2--||-2222-||
 G-||-------------------------------||-------------------------||
 D-||-------------------------------||-------------------------||
 A-||-------------------------------||-------------------------||
 D-||-1-4-1-2-1--1-4-1-2-1--1-4-1-2-||-1-4-1-2-1--1-4-22222222-||

 


 


 Verse 1,2


 

 
 G-||----------------------||--------------------||
 D-||*--------------------*||--------------------||
 A-||*--------------------*||--------------------|(2)
 D-||--11111--11111--1111--||-11111--11111--2222-||
 G-||------------------------||------------------------||
 D-||------------------------||------------------------||
 A-||------------------------||------------------------||(2)
 D-||-1-4-1-2-1--11111--1111-||-1-4-1-2-1--11111--2222-||
 G-||--------------||--------------||--------------||
 D-||--------------||--------------||--------------||
 A-||--------------||--------------||--------------||
 D-||-1-1121-1-121-||-1-1121-1-222-||-1-1121-1-121-||

 


 


 [(4)] [(4)] [(2)]  

 
 G-||--------------||--------||------------------||--------||
 D-||--------------||--------||------------------||--------||
 A-||--------------||--------||------------------||--------||
 D-||-3--3-31--1-1-||-10-9-1-||-3-9-10-15-3-9-10-||-3-9-10-||

 


 


 [(3)] [(2)]  

 
 G-||------------------||------------||------------------------------||
 D-||------------------||--Rest-Two--||-3-6-3-4-3--3-6-3-4-3--3-6-3-4||
 A-||------------------||--Measures--||------------------------------||
 D-||-3-9-10-15-3-9-10-||------------||------------------------------||
 G-||----------------------||---------||------||---------||
 D-||----------------------||---------||------||---------||
 A-||----------------------||---------||------||---------||
 D-||-3-6-3-4-3--3-6-3-4-3-||-3-6-3-4-||-4444-||-3-6-3-4-||


Important: The song above is NOT stored on the Chordie server. The original song is hosted at www.guitartabs.cc. Chordie works as a search engine and provides on-the-fly formatting. Chordie does not index songs against artists'/composers' will. To remove this song please click here.

This song is displayed as text-only. Transposing and tuning is only available for chordpro-songs.
Rate #1 of 2 versions

Login - add to songbook

SHARE PAGE  




You need to log in to post comments