Guitar Tabs, Chords and Lyrics
Major upgrade!! After one year development the new version of Chordie is now online! Please give feedback.


Hollow Years  Dream Theater

Hollow Years
By Sanjin Brkic
Guitar -John Petrucci
 
 E||------------------|------------------|------------------|------------------|
 B||------------------|------------------|------------------|------------------|
 G||------------------|------------------|------------------|------------------|
 D||------------------|------------------|------------------|------------------|
 A||------------------|------------------|------------------|------------------|
 E||------------------|------------------|------------------|------------------|

[Dmadd9] [Fadd9] [Gm] [A#/5-/A]  
 
 --0----0--------------|--3-------3---3-3-3-3----|--0----0----0----0----|
 --6----6----6----6----|--3-------3---3-3-3-3----|--3----3----3----3----|
 --7----7----0----0----|--3-------3---3-3-3-3----|--3----2----0----0----|
 --7----7----7----7----|--5-------5---5-5-5-5----|--2----2----0----0----|
 --5----5--------------|--5-------5---5-5-5-5----|--0----0--------------|
 ------------8----8----|--3----3--3---3-3-3-3----|------------3----3----|

[Dm]  
 
 --5----5--0---0-0-0-0----|--0----0--------------|--3-------3---3-3-3-3----|
 --6----6--3---3-3-3-3----|--6----6----6----6----|--3-------3---3-3-3-3----|
 --7----7--5---5-5-5-5----|--7----7----0----0----|--3-------3---3-3-3-3----|
 --7----7--5---5-5-5-5----|--7----7----7----7----|--5-------5---5-5-5-5----|
 --5----5-----------------|--5----5--------------|--5-------5---5-5-5-5----|
 ----------5---5-5-5-5----|------------8----8----|--3----3--3---3-3-3-3----|

[Dm]  
 
 --0----0----0----0----|--1----1--1---1-1-1-1----|-----------1--1---------|
 --3----3----3----3----|--3----3--3---3-3-3-3----|--------3---------------|
 --3----2----0----0----|--2----2--2---2-2-2-2----|-----2------------------|
 --2----2----0----0----|-------------------------|--0---------------------|
 --0----0--------------|--0----0--0---0-0-0-1----|-----------------0------|
 ------------3----3----|-------------------------|------------------------|
 -------------3------------|-------------------0----|--------1-----------0------|
 -----------3------3-------|-----------1--3---------|------------------3---3-1--|
 -----0-2-3-------------3--|--------3---------------|-----2----------2----------|
 --------------------------|-----3------------------|---------------------------|
 --------------------------|--1---------------------|--0--------0---------------|
 --3-----------------------|------------------------|---------------------------|
 ----------1--1-----------|-------------3------------|-------------------0----|
 -------3-----------------|-----------3------3-------|-----------1--3---------|
 ----2--------------------|-----0-2-3-------------3--|--------3---------------|
 ----------------------0--|--------------------------|-----3------------------|
 ----------------0--3-----|--------------------------|--1---------------------|
 -------------------------|--3-----------------------|------------------------|
 --------3--0------1-0-----|----0--1-------0--1----|----0--1-------0--1----|
 ------3---------------3---|----------3------------|-----------------------|
 ----3-------------------2-|-----------------------|----------0------------|
 --------------------------|-----------------------|-----------------------|
 --------------------------|-----------------------|-----------------------|
 --------------------------|-----------------------|-----------------------|
 ----0--1-------0--1----|----0--1-------0--1----|----0--1-------0--1----|
 ----------3------------|-----------------------|----------3------------|
 -----------------------|----------0------------|-----------------------|
 -----------------------|-----------------------|-----------------------|
 -----------------------|-----------------------|-----------------------|
 -----------------------|-----------------------|-----------------------|
 ----0--1-------0--1----|-------1----------1----|-------1----------1-----|
 -----------------------|----1-----1----1-------|----1-----1----1--------|
 ----------0------------|-----------------------|------------------------|
 -----------------------|-----------------------|---------------------3--|
 -----------------------|-----------------------|------------------------|
 -----------------------|-----------------------|------------------------|
 -------1----------1-----|-------1----------0--1--|-------1----------1-----|
 ----1-----1----1-----1--|----1-----1----1--------|----1-----1----1-----1--|
 ------------------------|------------------------|------------------------|
 ------------------------|------------------------|------------------------|
 ------------------------|------------------------|------------------------|
 ------------------------|------------------------|------------------------|
 -------1----------0--1--|-------1----------1-----|-------1-----0--------0--|
 ----1-----1----1--------|----1-----1----1-----1--|----1-----1-----2--------|
 ------------------------|------------------------|-------------------2-----|
 ------------------------|------------------------|-------------------------|
 ------------------------|------------------------|-------------------------|
 ------------------------|------------------------|-------------------------|
 -------0--1-----0--1----|-------3----------3----|--------1----------1-----|
 ----3-------------------|----3-----3----3-------|-----1-----1----1-----1--|
 ------------------------|-----------------------|--3----------------------|
 ------------------------|-----------------------|-------------------------|
 ------------------------|-----------------------|-------------------------|
 ------------------------|-----------------------|-------------------------|
 --5--5-5-5---5--5----5----|--5--5-5-5---5--5----5----|
 --6--6-6-6---6--6----6----|--6--6-6-6---6--6-1--6----|
 --5--5-5-5---5--5-5--5----|--5--5-5-5---5--5-3--5----|
 --------------------------|--8--8-8-8---8--8----8----|
 --------------------------|--------------------------|
 --------------------------|--------------------------|
 --5--5-5-5---5--5----5----|--5--5-5-5---5--5----5--5-5-|-----------------------|
 --6--6-6-6---6--6----6----|--6--6-6-6---6--6-1--6--6-6-|----------6--6---------|
 --5--5-5-5---5--5-5--5----|--5--5-5-5---5--5-3--5--5-5-|-------7---------------|
 --------------------------|--8--8-8-8---8--8----8--8-8-|----7------------------|
 --------------------------|----------------------------|-----------------------|
 --------------------------|----------------------------|----------------5------|
 -------------3------------|-------------------0----|--------1-----------0------|
 -----------3------3-------|-----------1--3---------|------------------3---3-1--|
 -----0-2-3-------------3--|--------3---------------|-----2----------2----------|
 --------------------------|-----3------------------|---------------------------|
 --------------------------|--1---------------------|--0--------0---------------|
 --3-----------------------|------------------------|---------------------------|
 ----------1--1-----------|-------------3------------|-------------------0----|
 -------3-----------------|-----------3------3-------|-----------1--3---------|
 ----2--------------------|-----0-2-3-------------3--|--------3---------------|
 ----------------------0--|--------------------------|-----3------------------|
 ----------------0--3-----|--------------------------|--1---------------------|
 -------------------------|--3-----------------------|------------------------|
 --------3--0------1-0-----|----0--1-------0--1----|----0--1-------0--1----|
 ------3---------------3---|----------3------------|-----------------------|
 ----3-------------------2-|-----------------------|----------0------------|
 --------------------------|-----------------------|-----------------------|
 --------------------------|-----------------------|-----------------------|
 --------------------------|-----------------------|-----------------------|
 ----0--1-------0--1----|----0--1-------0--1----|----0--1-------0--1----|
 ----------3------------|-----------------------|----------3------------|
 -----------------------|----------0------------|-----------------------|
 -----------------------|-----------------------|-----------------------|
 -----------------------|-----------------------|-----------------------|
 -----------------------|-----------------------|-----------------------|
 ----0--1-------0--1----|-------1----------1----|-------1----------0-----|
 -----------------------|----1-----1----1-------|----1-----1----1--------|
 ----------0------------|-----------------------|------------------------|
 -----------------------|-----------------------|---------------------3--|
 -----------------------|-----------------------|------------------------|
 -----------------------|-----------------------|------------------------|
 -------1----------1-----|-------1----------0--1--|-------1----------1-----|
 ----1-----1----1-----1--|----1-----1----1--------|----1-----1----1-----1--|
 ------------------------|------------------------|------------------------|
 ------------------------|------------------------|------------------------|
 ------------------------|------------------------|------------------------|
 ------------------------|------------------------|------------------------|
 -------1----------0--1--|-------1----------1-----|-------1-----0--------0--|
 ----1-----1----1--------|----1-----1----1-----1--|----1-----1-----2--------|
 ------------------------|------------------------|-------------------2-----|
 ------------------------|------------------------|-------------------------|
 ------------------------|------------------------|-------------------------|
 ------------------------|------------------------|-------------------------|
 -------0--1-----0--1----|-------3----------3----|--------1----------1-----|
 ----3-------------------|----3-----3----3-------|-----1-----1----1-----1--|
 ------------------------|-----------------------|--3----------------------|
 ------------------------|-----------------------|-------------------------|
 ------------------------|-----------------------|-------------------------|
 ------------------------|-----------------------|-------------------------|
 ----------0---1------3/-5-|----6-6---------3---0----3--|
 ------------3-------------|--------------6---6----6----|
 --------2-----------------|----------------------------|
 --------------------------|----------------------------|
 --------------------------|----------------------------|
 --------------------------|----------------------------|
 -------------0------1--3-|----5-5---5-13--12--------------|
 ---------3-2--------3----|--------------------13-----10---|
 -------3-----------------|------------------------12------|
 -------------------------|--------------------------------|
 -------------------------|--------------------------------|
 -------------------------|--------------------------------|

[Dm]  
 
 -------5-12-10--13--13-13--12-----|---12------------------------------------|
 ----------------15--15-15--13--15-|---13-----11--11-13-11-10-11----10--8----|
 -------------------------------15-|--------------------------------------10-|
 ----------------------------------|-----------------------------------------|
 ----------------------------------|-----------------------------------------|
 ----------------------------------|-----------------------------------------|
 ---------5-------------3------|-------------1-5-6-8-5-3-1-|
 --8---------6-5-6---------3-2-|--3--------3---------------|
 ------------------------------|---------------------------|
 ------------------------------|---------------------------|
 ------------------------------|---------------------------|
 ------------------------------|---------------------------|
 ----0--1-------0--1----|----0--1-------0--1----|----0--1-------0--1----|
 ----------3------------|-----------------------|----------3------------|
 -----------------------|----------0------------|-----------------------|
 -----------------------|-----------------------|-----------------------|
 -----------------------|-----------------------|-----------------------|
 -----------------------|-----------------------|-----------------------|
 ----0--1-------0--1----|----0--1-------0--1----|----0--1-------0--1----|
 -----------------------|----------3------------|-----------------------|
 ----------0------------|-----------------------|----------0------------|
 -----------------------|-----------------------|-----------------------|
 -----------------------|-----------------------|-----------------------|
 -----------------------|-----------------------|-----------------------|
 -------1----------1----|-------1----------1----|-------1----------1----|
 ----1-----1----1-------|----1-----1----1-------|----1-----1----1-------|
 -----------------------|-----------------------|-----------------------|
 -----------------------|-----------------------|-----------------------|
 -----------------------|-----------------------|-----------------------|
 -----------------------|-----------------------|-----------------------|
 -------3----------3-----|-------3----------2--3--|-------3----------3-----|
 ----3-----3----3-----3--|----3-----3----3--------|----3-----3----3-----3--|
 ------------------------|------------------------|------------------------|
 ------------------------|------------------------|------------------------|
 ------------------------|------------------------|------------------------|
 ------------------------|------------------------|------------------------|
 -------3----------2--3--|-------3----------3-----|-------3-----2--------2--|
 ----3-----3----3--------|----3-----3----3-----3--|----3-----3-----4--0-----|
 ------------------------|------------------------|-------------------------|
 ------------------------|------------------------|-------------------------|
 ------------------------|------------------------|-------------------------|
 ------------------------|------------------------|-------------------------|
 ----0--2--3-----2--3----|----0--5--0----0--5----|--------3----------3-----|
 ------------------------|-----------------------|-----3-----3----3-----3--|
 ------------------------|-----------------------|--5----------------------|
 ------------------------|-----------------------|-------------------------|
 ------------------------|-----------------------|-------------------------|
 ------------------------|-----------------------|-------------------------|
 |---5--5-5-5---5--5----5----|--5--5-5-5---5--5----5----|
 |---6--6-6-6---6--6----6----|--6--6-6-6---6--6-1--6----|
 |*--5--5-5-5---5--5-5--5----|--5--5-5-5---5--5-3--5----|
 |*--------------------------|--8--8-8-8---8--8----8----|
 |---------------------------|--------------------------|
 |---------------------------|--------------------------|

F 7x
 
 --5--5-5-5---5--5----5----|--5--5-5-5---5--5----5--5-5--||
 --6--6-6-6---6--6----6----|--6--6-6-6---6--6-1--6--6-6--||
 --5--5-5-5---5--5-5--5----|--5--5-5-5---5--5-3--5--5-5-*||
 --------------------------|--8--8-8-8---8--8----8--8-8-*||
 --------------------------|-----------------------------||
 --------------------------|-----------------------------||


Important: The song above is NOT stored on the Chordie server. The original song is hosted at www.xguitar.com. Chordie works as a search engine and provides on-the-fly formatting. Chordie does not index songs against artists'/composers' will. To remove this song please click here.

Text color:
Chord color:
Chord grids: 
Font size:    
Page size: 

Dm Dmadd9 Fadd9 Gm
Rate #7 of 10 versions

Jango Player

Login - add to songbook

SHARE PAGE  



You need to log in to post comments