Guitar Tabs, Chords and Lyrics
Major upgrade!! After one year development the new version of Chordie is now online! Please give feedback.


Naked City   KISS

 
 E|------------------------------------------|
 B|------------------------------------------|
 G|------------------------------------------|
 D|------------------------------------------|
 A|--------------------2------------0--2--3--|
 E|--3--2--0--------0------------------------|
 E|------------------------------------------|
 B|------------------------------------------|
 G|------------------------------------------|
 D|------------1--2--4--5--------------------|
 A|----2----4--------------------------------|
 E|------------------------------------------|

 


 


 


 Rhythm Fig. 2


 


 

 
 E|------------------------------------------|
 B|------------------------------------------|
 G|------------------------------------------|
 D|------------------------------------------|
 A|------------------2------------0--2--3----|
 E|--0------------0--------------------------|
 E|------------------------------------------|
 B|------------------------------------------|
 G|------------------------------------------|
 D|------------------------1--2--4--5--------|
 A|----------------2----4--------------------|
 E|------------------------------------------|

 


 


 


 Rhythm Fig. 3


 


 

 
 E|------------------------------------------|
 B|------------------------------------------|
 G|------------------------------------------|
 D|------------------------------------------|
 A|------------------2------------0--2--3----|
 E|--0------------0--------------------------|
 E|------------------------------------------|
 B|------------------------------------------|
 G|------------------------------------------|
 D|------------------------1--2--4-----------|
 A|----------------2----4--------------------|
 E|---------------------------------3--2-----|

 


 


 


 Rhythm Fig. 4


 


 

 
 E|------------------------------------------|
 B|----8--7----8--7--------------------------|
 G|----7--7----7--7--------------------------|
 D|------------------------------------------|
 A|------------------------------------------|
 E|------------------------------------------|

 


 < - - 3x - - >


 


 


 Rhythm Fig. 5


 


 

 
 E|------------------------------------------|
 B|--5----5----5----5----5----5----5----5----|
 G|--5----5----5----5----5----5----5----5----|
 D|--5----5----5----5----7----7----7----7----|
 A|------------------------------------------|
 E|------------------------------------------|
 E|------------------------------------------|
 B|--8----8----8----8----8----8----8--7------|
 G|--9----9----9----9----9----9----9--7------|
 D|--9----9----9----9----9----9----9--7------|
 A|------------------------------------------|
 E|------------------------------------------|
 E|------------------------------------------|
 B|--5----5----5----5----5----5----5----5----|
 G|--5----5----5----5----5----5----5----5----|
 D|--5----5----5----5----7----7----7----7----|
 A|------------------------------------------|
 E|------------------------------------------|

 


 


 


 [End] [1]  


 

 
 E|------------------------------------------|
 B|--------5-------5-------4-------4-------4-|
 G|-----4-------4-------4-------4-------4----|
 D|--4-------4-------4-------4-------4-------|
 A|------------------------------------------|
 E|------------------------------------------|

 


 


 


 [End] [2]  


 

 
 E|------------------------------------------|
 B|--------5--------5--------4--------4------|
 G|-----4--------4--------4--------4---------|
 D|--4--------4--------4--------4------------|
 A|------------------------------------------|
 E|------------------------------------------|

 


 


 [End] [3]  


 

 
 E|------------------------------------------|
 B|--------5--------5--------4---------------|
 G|-----4--------4--------4------------------|
 D|--4--------4--------4---------------------|
 A|------------------------------------------|
 E|------------------------------------------|

 


 


 


 Rhythm Fig. 6


 


 

 
 E|------------------------------------------|
 B|------------------------------------------|
 G|------------------------------------------|
 D|------------------------------------------|
 A|------------------------------------------|
 E|--0------------0--3--------------3--2-----|
 < - - - - - - - - 3x - - - - - - - - >
 E|------------------------------------------|
 B|------------------------------------------|
 G|------------------------------------------|
 D|------------------------------------------|
 A|------------------------------------------|
 E|--0------------0--3-----------------------|

 


 


 


 Rhythm Fig. 7


 


 

 
 E|------------------------------------------|
 B|-----------------(5)----------------------|
 G|------------------5-----------------------|
 D|------------------5-----------------------|
 A|------------------3-----------------------|
 E|--0------------0------------------3--2----|
 < - - - - - - - - 3x - - - - - - - - >
 E|------------------------------------------|
 B|------------------------------------------|
 G|------------------------------------------|
 D|------------------------------------------|
 A|------------------------------------------|
 E|--0------------0--3-----------------------|

 


 


 


 Rhythm Fig. 8


 


 

 
 E|--7----7----7----7------------------------|
 B|--8----8----8----8------------------------|
 G|--9----9----9----9------------------------|
 D|--9----9----9----9------------------------|
 A|------------------------------------------|
 E|------------------------------------------|

 


 


 


 Rhythm Fig. 9


 


 

 
 E|------------------------------------------|
 B|------------------------------------------|
 G|------------------------------------------|
 D|------------------------------------------|
 A|--0--2--3--------3--2--0--------0---------|
 E|-----------------------------------3--0---|
 E|------------------------------------------|
 B|------------------------------------------|
 G|----------9--7----------------------------|
 D|----------9--7----------------------------|
 A|----------7--5-------3--------3--2--0-----|
 E|------------------------------------------|
 E|------------------------------------------|
 B|------------------------------------------|
 G|------------4--4--4--4--4--4--4--4--4-----|
 D|------------4--4--4--4--4--4--4--4--4-----|
 A|---------0--2--2--2--2--2--2--2--2--2-----|
 E|------3-----------------------------------|

 


 


 


 Solo


 


 

 
 E|-----------------------------------------------------------|
 B|-----------------------------------x-12--x-10--8~----------|
 G|-------------------------8--9--11--------------------------|
 D|----------------9~---11------------------------------------|
 A|-----------------------------------------------------------|
 E|-----------------------------------------------------------|
 E|-----------------------------------------------------------|
 B|--------------8--7~----------------------------------------|
 G|------------------------------4p2p0h2--2b-2----------------|
 D|-----------------------------------------------------------|
 A|-----------------------------------------------------------|
 E|-----------------------------------------------------------|
 E|-----------------------------------------------------------|
 B|-----------------------------------12h15p12----15p12-15b---|
 G|----------2p0h2p0h2p0---------/14-----------14-------------|
 D|----------------------2------------------------------------|
 A|-----------------------------------------------------------|
 E|-----------------------------------------------------------|
 E|-------------------------------------------------------15b-|
 B|-------12h15p12---12-----------------12h15p12----15p12-----|
 G|--/14-----------14---14p12------/14-----------14-----------|
 D|-----------------------------------------------------------|
 A|-----------------------------------------------------------|
 E|-----------------------------------------------------------|
 E|--15b-15b---12h15p12-----12--17b---17--15--17--17b---17b~--|
 B|---------------------15------------------------------------|
 G|-----------------------------------------------------------|
 D|-----------------------------------------------------------|
 A|-----------------------------------------------------------|
 E|-----------------------------------------------------------|

 


 


 


 Outro solo


 


 

 
 E|-----------------------------------------------------------|
 B|-----------8--9--11--12------15b~----15b--r15--------------|
 G|--9~---11--------------------------------------14----------|
 D|-----------------------------------------------------------|
 A|-----------------------------------------------------------|
 E|-----------------------------------------------------------|
 E|-----------------------------------------------------------|
 B|--15b--15r----------15b--15r--------15b--15----15b--15-----|
 G|------------12----------------14------------14---------14--|
 D|-----------------------------------------------------------|
 A|-----------------------------------------------------------|
 E|-----------------------------------------------------------|
 E|------------------------17b--17b---------------------------|
 B|--15b----15h17p15----15------------------------------------|
 G|------------------16---------------------------------------|
 D|-----------------------------------------------------------|
 A|-----------------------------------------------------------|
 E|-----------------------------------------------------------|
 < - - - - 7x - - - - - >


Important: The song above is NOT stored on the Chordie server. The original song is hosted at www.xguitar.com. Chordie works as a search engine and provides on-the-fly formatting. Chordie does not index songs against artists'/composers' will. To remove this song please click here.

This song is displayed as text-only. Transposing and tuning is only available for chordpro-songs.
Rate #3 of 4 versions

Jango Player

Login - add to songbook

SHARE PAGE  



You need to log in to post comments