Guitar Tabs, Chords and Lyrics


The Wanderer  U2

------------



1---------------------


2---------------------


3---------------------


4---------------------


5---------------------


6---3--3--3--3--3--0--

[G5]I went out walking through the streets paved with gold
1---------------------
2---------------------
3---------------------
4---------------------
5---3--3--3--3--3--0--
6---------------------

[C]Lifted some stones, saw the skin and bones of a [G5]city without a soul
Where the [C]ground won't turn and the rain, it burns
Like the [G5]tears when I said goodbye
[Em]Yeah I went with [C]nothing, [G5]nothing but the thought of [D]you
I went [Em]wandering[C] [D] [G5]
(synthesizer with above chords):
1--------------------------------------------------------------
2--------------------------------------------------------------
3--------------------------------------------------------------
4--------------------------------------------5--5--5--5--5--5--
5-----------------------3--3--3--3--3--3-----------------------
6---0--0--0--0--0--0-------------------------------------------
1----------------------------------------------------------------------
2----------------------------------------------------------------------
3----------------------------------------------------------------------
4----------------------------------------------------------------------
5---5--5--5--5--5--5-----------------------3--3--3--5--5--5------------
6-----------------------0--0--0--0--0--0-----------------------3--3--3-

[G5]I went drifting through the capitals of tin
Where [C]men can't walk or freely talk and [G5]sons turn their fathers in
I stopped outside a church house where the citizens like to sit
They [C]say they want the kingdom, but they [G5]don't want GOD in it
I went out riding down that old eight lane
[C]I passed by a thousand signs [G5]looking for my own name
[Em]I went with [C]nothing, [G5]but the thought you'd be there [D]too
Looking for [Em]you[C] [D] [G5]
solo:
1-----------------------------------------------
2-----------------------------------------------
3-----------------------------------------------
4-----------------------------------------------
5---3--3--3--5--5--5--7--7--7/9--9--------------
6--------------------------------------0--3--3--

[G5]I went out there in search of experience
To [Em]taste and to touch and to [C]feel as much
[G5]As a man can[D] before he repents[Em] [C] [D] [G5]
[G5]I went out searching, looking for one good man
A [C]spirit who would not bend or break
Who would [G5]sit at his father's right hand
I went out walking with a bible and a gun
The [C]Word of GOD lay heavy on my heart, I was [G5]sure I was the one
Now Jesus, don't You wait up, Jesus, I'll be home soon
Yeah [C]I went out for the papers, [G5]told her I'd be back by noon
[Em]Yeah I left with [C]nothing, but the [G5]thought you'd be there [D]too
Looking for [Em]you[C] [D] [G5]
[Em]Yeah I left with [C]nothing, [G5]nothing but the thought of [D]you
I went [Em]wandering[C] [D] [G5]
[G5]   [Em]     [C]    [G5]     [D]    [Em]     [C]    [D]    [G5]   (BEEP!  BEEP!  BEEP!  BEEP!  BEEP!  BEEP!   BEEP!  BEEP!)
http://www.angelfire.com/va/battersea/index.html
THE WANDERER
chords by: Sergio Lucero
capo on 1st
I[F] went out walking through the streets paved with gold
L[Bb]ifted some stones, saw the skin and bones
Of a c[F]ity without a soul
I went out walking under an atomic sky
Where the [Bb]ground won't turn and the rain it burns
Like the t[F]ears when I said goodbye
Y[Dm]eah I went with [Bb]nothing
N[F]othing but the thought of [C]you
                Dm-Bb-C-F

I went wandering
I went drifting through the capitals of tin
Where men can't walk or freely talk
And sons turn their fathers in
I stopped outside a church house
where the citizens like to sit
They say they want the kingdom
But they don't want God in it
I went out riding
Down that ol' eight lane
I passed by a thousand signs
Looking for my own name
I went with nothing
But the thought you'd be there too
Looking for you
I went out there in search of experience
To taste and to touch and to feel as much
As a man can before he repents
I went out searching, lookin' for one good man
A spirit who would not bend or break
Who would sit at his father's right hand
I went out walking with a bible and a gun
The word of God lay heavy on my heart
I was sure I was the one
Now Jesus, don't you wait up
Jesus, I'll be home soon
Yeah I went out for the papers
Told her I'd be back by noon
Yeah I left with nothing
But the thought you'd be there too
Looking for you...
Yeah I left with nothing
Nothing but the thought of you...
I went wandering

Important: The song above is NOT stored on the Chordie server. The original song is hosted at flarere.free.fr. Chordie works as a search engine and provides on-the-fly formatting. Chordie does not index songs against artists'/composers' will. To remove this song please click here.

Text color:
Chord color:
Chord grids: 
Font size:    
Page size: 

Bb C D Dm Em F G5
variations - click chord images

Login - add to songbook

Transpose chords

Tuning

Rating click stars to rate

Layout
Accuracy

SHARE PAGE  




You need to log in to post comments