Guitar Tabs, Chords and Lyrics


Salome  U2

1-------------------------------------------------------------------


2-------------------------------------------------------------------


3-------------------------------------------------------------------


4-----------------------------------------------------------------2-


5---2--2--x--2--2--x--2--2--x--5--2---------------------------------


6-------------------------------------------------------------------

    [B5]         [A5]        [B5]                                                                                         
1-----------------------
2-----------------------
3---4--------2-------4--
4---4--------2-------4--
5---2--------0-------2--
6-----------------------

Salome
Salome
Shake it, shake it, shake it Salome
Shake it, shake it, shake it Salome
Baby please
Baby what's that tune?
Well I heard it before
When I crawled from your door and my blood turned blue
Please
Baby please slow down
Baby I feel sick
Don't make me stick to the Promise
Salome
Salome
Shake it, shake it, shake it Salome
Shake it, shake it, shake it Salome
Bridge:
    [G]         [A]                                                                                                 
1---3--------5-
2---3--------5-
3---4--------6-
4---5--------7-
5---5--------7-
6---3--------5-

(with reverb and delay)
1----------------------------2---4---5---4---2-
2---4------------------------------------------
3----------------------------------------------
4----------------------------------------------
5----------------------------------------------
6----------------------------------------------
1-------------------------
2---5---4---5---4---2---0-
3-------------------------
4-------------------------
5-------------------------
6-------------------------

Baby please
Baby don't say no
Won't you dance for me in the cherry tree?
Won't you swing down low?
Please
Baby please say yes
I've been gone all week
But I'll still in the heat of your precious love
Salome
Salome
Shake it, shake it, shake it Salome
Shake it, shake it, shake it Salome
Solo (by no means a perfect transcription):
1---7--7--7--7--7--7--7--5--7-----------7--7--7--7--7--7--7--5--7-
2---7--7--7--7--7--7--7--5--7-----------7--7--7--7--7--7--7--5--7-
3-----------------------------------------------------------------
4-----------------------------------------------------------------
5-----------------------------------------------------------------
6-----------------------------------------------------------------
1---9b11--9b11--9b11--9--7-------9b11--9b11--9b11--9--7--9--9b11--
2---9b11--9b11--9b11--9--7-------9b11--9b11--9b11--9--7--9--9b11--
3-----------------------------------------------------------------
4-----------------------------------------------------------------
5-----------------------------------------------------------------
6-----------------------------------------------------------------
1-----------------------------------------
2---4---7---4-----------------------------
3--------------------------------------4--
4-----------------------------------------
5-----------------------------------------
6-----------------------------------------
1--------------------------------------------------------
2--------------------------------------------------------
3------------------------------------------------------4-
4---------------------------4h6--------------------------
5---6----------------------------------------------------
6--------------------------------------------------------

              [B]                   [A]                                                                           
1----------------------------------
2-------------4------------------2-
3-------------4------------------2-
4---4h6-------4------------4h6---2-
5----------------------------------
6----------------------------------
1--------------------------------------
2--------------------------------------
3--------------------------------------
4----------------------------------4h6-
5---4h6--------------------------------
6--------------------------------------
1--------------------------
2---4b6--------------4p2p0-
3--------------------------
4--------------------------
5--------------------------
6--------------------------
1------------------------------------
2------------------------------------
3---4p2---------4-----------------4\-
4------------------------------------
5------------------------------------
6------------------------------------

[--]Leniart, Brandon K
leniarbk@jmu.edu

Important: The song above is NOT stored on the Chordie server. The original song is hosted at membres.lycos.fr. Chordie works as a search engine and provides on-the-fly formatting. Chordie does not index songs against artists'/composers' will. To remove this song please click here.

Text color:
Chord color:
Chord grids: 
Font size:    
Page size: 

A A5 B B5 G
variations - click chord images

Login - add to songbook

Transpose chords

Tuning

Rating click stars to rate

Layout
Accuracy

Jango Player

SHARE PAGE  




You need to log in to post comments