Guitar Tabs, Chords and Lyrics


The Electric Co.   U2


e|----------------|-----------------|-----------------|-----------------|







B|----------------|-----------------|-----------------|-----------------|







G|2-----5-----4---|---9----11---7---|-2-----5-----4---|---12--14--11----|


D|0-0-0-0-0-0-0-0-|-0-0-0-0-0-0-0-0-|-0-0-0-0-0-0-0-0-|-0-0-0-0-0-0-0-0-|


A|----------------|-----------------|-----------------|-----------------|


E|----------------|-----------------|-----------------|-----------------|


e|----------------|-----------------|-----------------|-------3---------|


B|----------------|-----------------|-----------------|-------3---------|


G|2-----5-----4---|---7-----9---7---|-2-----5-----4---|-------4---------|


D|0-0-0-0-0-0-0-0-|-0-0-0-0-0-0-0-0-|-0-0-0-0-0-0-0---|-------5---------|


A|----------------|-----------------|-----------------|-------5---------|


E|----------------|-----------------|-----------------|-------3---------|


e|--3------3---------2---3----2--------0---2-----0--------3-------3-----|


B|--3------3---------3---3----3--------3---3-----3--------3-------3-----|


G|--4------4---------2---2----2--------2---2-----2--------0-------0-----|


D|--5------5---------0---0----0--------0---0-----0--------0-------0-----|


A|--5------5------------------------------------------------------------|


E|--3------3------------------------------------------------------------|


e|--2---3---2---------2-------2--------2---x--x--x--3-|


B|--3---3---3---------3-------3--------3---x--x--x--3-|


G|--2---2---2---------2-------2--------2---x--x--x--2-|


D|--0---0---0---------0-------0--------0---x--x--x--0-|


A|----------------------------------------------------|


E|----------------------------------------------------|


e|--2--x--x--x--0----2--x--x--x--3-----2--x--x--x--0-----2--x--2--2--3--|


B|--3--x--x--x--3----3--x--x--x--3-----3--x--x--x--3-----3--x--3--3--3--|


G|--2--x--x--x--2----2--x--x--x--2-----2--x--x--x--2-----2--x--2--2--2--|


D|--0--x--x--x--0----0--x--x--x--0-----0--x--x--x--0-----0--x--0--0--0--|


A|----------------------------------------------------------------------|


E|----------------------------------------------------------------------|


e|--2------x--2--0--0------------------15---------|


B|--3------x--3--3--3----------------------15-----|


G|--2------x--2--2--2----------12--12-------------|


D|--0------x--0--0--0-----------------------------|


A|------------------------------------------------|


E|------------------------------------------------|


e|--------14-------2-----x--2--2---3------2-----x--2--0--0------------15-----|


B|------------13---3-----x--3--3---3------3-----x--3--3--3----------------15-|


G|-11--11----------2-----x--2--2---2------2-----x--2--2--2-----12--12--------|


D|-----------------0-----x--0--0---0------0-----x--0--0--0-------------------|


A|---------------------------------------------------------------------------|


E|---------------------------------------------------------------------------|


e|--------14--------x---------8--------0---------------------2---3---2--0--2-|


B|------------13----x---------8--------0---------------------3---3---3--3--3-|


G|-11--11-----------x---------9--------9---------------------2---2---2--2--3-|


D|------------------x--------10-------10---------------------0---0---0--0--0-|


A|------------------x--------10-------10-------------------------------------|


E|------------------x---------8--------8-------------------------------------|




                                                                                                                         


e|--------------8-------------0------------0-------------2--3--2--0--2---|
B|--------------8-------------0------------0-------------3--3--3--3--3---|
G|--------------9-------------9------------9-------------2--2--2--2--2---|
D|-------------10------------10-----------10-------------0--0--0--0--0---|
A|-------------10------------10-----------10-----------------------------|
E|--------------8-------------8------------8-----------------------------|




 If you don't know                                    The electric Co.


The rest of the song is pretty much the same.


The bridge and the solo parts sound great, but I play the final part of the


solo this way:


                                                                                                                         


e|----------15----------------14------|
B|-------------15-----------------13--|
G|--12--12------------11--11----------|  Play this several times,
D|------------------------------------|
A|------------------------------------|           then
E|------------------------------------|
e|--15-------14---------15-------14---------------------------15-15-15-15----|
B|------15-------13---------15-------13----Getting faster--------------------|
G|---------------------------------------------------------------------------|
D|---------------------------------------------------------------------------|
A|---------------------------------------------------------------------------|
E|---------------------------------------------------------------------------|




Finally the outro:


                                                                                                                        


e|--2----2--2--2--2-2--3-3--3-3---7--5--|
B|--3----3--3--3--3-3--3-3--3-3---7--5--|
G|--2----2--2--2--2-2--0-0--0-0---0--0--|
D|--0----0--0--0--0-0--0-0--0-0---------|
A|--------------------------------------|
E|--------------------------------------|




Any comments?


*correction*


==================


"The Electric Co."


==================


nigelolympus@tinet.ie


Use a 270 ms delay for the intro.


Here is the way I play the solo:


                                                                                                                        


1|--------------------------------|     |---------------------------------|
2|--------------------------------|     |---------------------------------|
3|-7---7---7---7---7---7---7---7--| (x3)|-7---7---7---7---7--/17----------|
4|-0---0---0---0---0---0---0---0--|     |-0---0---0---0---0---------------|
5|--------------------------------|     |---------------------------------|
6|--------------------------------|     |---------------------------------|




   1   &   2   &   3   &   4   &           1   &   2   &   3   &   4   &


                                                                                                                        


1|--------------------------------|     |---------------------------------|
2|--------------------------------|     |---------------------------------|
3|-17--17--16--16--19--19--16--16-| (x2)|-17--16--19--16--17--16--19--16--| (x2)
4|-0---0---0---0---0---0---0---0--|     |-0---0---0---0---0---0---0---0---|
5|--------------------------------|     |---------------------------------|
6|--------------------------------|     |---------------------------------|




   1   &   2   &   3   &   4   &           1   &   2   &   3   &   4   &


                                                                                                                        


1|---------------------------------|-------------------------------|
2|---------------------------------|-------------------------------|
3|-17----------16----------14------|---12--9--/11------12------11--|  \
4|-0-----------0-----------0-------|---0---0-----------0-------0---|   \
5|---------------------------------|-------------------------------|    |
6|---------------------------------|-------------------------------|    | 




   1   &   2   &   3   &   4   &   1   &   2   &   3   &   4   &         \


                                                                          }


(x2)


                                                                                                                        


1|---------------------------------|-------------------------------|     /
2|---------------------------------|-------------------------------|    |
3|---------7-----------2-----------|-------------------------------|    |
4|---------0-----------0-----------|--------------------------(0)--|   /
5|---------------------------------|-------------------------------|  /
6|---------------------------------|-------------------------------|




   1   &   2   &   3   &   4   &   1   &   2   &   3   &   4   &


Javier Cayuela 


                                                                                                                        


------------------------------------------------------------------------------




U2


The Electric Co.


tabbed by Nathan O’Neal (noneal@imt.net)


(tuned down 1/2 step)


                                                                                                                        


---------------------------------------------------------------------
-12--12--12--12--------------------------------------------------play-----
-11--11--11---9---------------------------------------------------this------
 -9---9---9---9-------2*-------9---9---9---9---9---9---9--9---wholething----
---------------------------------------------------------------3times ------




Somebody Cry .....                              ...Cry


                                                                                                                        


|----------------|-----------------|-----------------|-----------------|
|----------------|-----------------|-----------------|-----------------|
|2-----5-----4---|---9-----11--7---|-2-----5-----4---|---12--14--11----|
|0-0-0-0-0-0-0-0-|-0-0-0-0-0-0-0-0-|-0-0-0-0-0-0-0-0-|-0-0-0-0-0-0-0-0-|
|----------------|-----------------|-----------------|-----------------|
|----------------|-----------------|-----------------|-----------------|




Edge mutes the strings with his palm


                                                                                                                        


|----------------|-----------------|-----------------|-------3---------|
|----------------|-----------------|-----------------|-------3---------|
|2-----5-----4---|---9-----11--7---|-2-----5-----4---|-------0---------|
|0-0-0-0-0-0-0-0-|-0-0-0-0-0-0-0-0-|-0-0-0-0-0-0-0---|-------0---------|
|----------------|-----------------|-----------------|-----------------|
|----------------|-----------------|-----------------|-----------------|
|--3------3------|--2---3----2-----|--0---2-----0----|---3-------3-----|
|--3------3------|--3---3----3-----|--3---3-----3----|---3-------3-----|
|--0------0------|--2---2----2-----|--2---2-----2----|---0-------0-----|
|--0------0------|--0---0----0-----|--0---0-----0----|---0-------0-----|
|----------------|-----------------|-----------------|-----------------|
|----------------|-----------------|-----------------|-----------------|
|--2---3---2-----|---2-------2-----|--2---x--x--x--3-|
|--3---3---3-----|---3-------3-----|--3---x--x--x--3-|
|--2---2---2-----|---2-------2-----|--2---x--x--x--2-|
|--0---0---0-----|---0-------0-----|--0---x--x--x--0-|
|----------------|-----------------|-----------------|
|----------------|-----------------|-----------------|
|--2--x--x--x--0-|--2--x--x--x--3--|--2--x--x--x--0--|--2--x--2--2--3--|
|--3--x--x--x--3-|--3--x--x--x--3--|--3--x--x--x--3--|--3--x--3--3--3--|
|--2--x--x--x--2-|--2--x--x--x--2--|--2--x--x--x--2--|--2--x--2--2--2--|
|--0--x--x--x--0-|--0--x--x--x--0--|--0--x--x--x--0--|--0--x--0--0--0--|
|----------------|-----------------|-----------------|-----------------|
|----------------|-----------------|-----------------|-----------------|




                                                        Boy


                                                                                                                        


|--2------x--2--0--0-------|---15-----------------|
|--3------x--3--3--3-------|----------15----------|
|--2------x--2--2--2-------|------------------14--|
|--0------x--0--0--0-------|-----------------------|
|--------------------------|-----------------------|
|--------------------------|-----------------------|




Stupid boy                         You don’t sit at the table......


                                                                                                                        


|----14---------|-2-----x--2--2---3----|--2------x--2--0--0-------|---15------------------|
|-------15------|-3-----x--3--3---3----|--3------x--3--3--3-------|------------15---------|
|------------14-|-2-----x--2--2---2----|--2------x--2--2--2-------|--------------------14-|
|---------------|-0-----x--0--0---0----|--0------x--0--0--0-------|-----------------------|
|---------------|----------------------|--------------------------|-----------------------|
|---------------|----------------------|--------------------------|-----------------------|




until your able to         toy             broken    toy              You shout and shout......


                                                                                                                        


|----14---------|--0--------------|--3-----------------------|--2---3---2--0--2-|
|-------15------|--1--------------|--3-----------------------|--3---3---3--3--3-|
|------------14-|--0--------------|--0-----------------------|--2---2---2--2--3-|
|---------------|--2--------------|--0-----------------------|--0---0---0--0--0-|
|---------------|--3--------------|--2-----------------------|------------------|
|---------------|-----------------|--3-----------------------|------------------|




You’re inside out   If you dont know                         Electric co


                                                                                                                        


|--0---------------------|--3------------------------|--2--3--2--0--2---|
|--1---------------------|--3------------------------|--3--3--3--3--3---|
|--0---------------------|--0------------------------|--2--2--2--2--2---|
|--2---------------------|--0------------------------|--0--0--0--0--0---|
|--3---------------------|--2------------------------|------------------|
|------------------------|--3------------------------|------------------|




      If you dont.....                                    Electric co


                                                                                                                        


|--2----x--x--x--3---|--2---x--x--x---0--|--2---x--x--x--3----|---2----x--x--x--0----|
|--3----x--x--x--3---|--3---x--x--x---3--|--3---x--x--x--3----|---3----x--x--x--3----|
|--2----x--x--x--2---|--2---x--x--x---2--|--2---x--x--x--2----|---2----x--x--x--2----|
|--0----x--x--x--0---|--0---x--x--x---0--|--0---x--x--x--0----|---0----x--x--x--0----|
|--------------------|-------------------|--------------------|----------------------|
|--------------------|-------------------|--------------------|----------------------|
|--2--x--2--2--3--|--2------x--2--0--0-------|---15-----------------|
|--3--x--3--3--3--|--3------x--3--3--3-------|----------15----------|
|--2--x--2--2--2--|--2------x--2--2--2-------|------------------14--|
|--0--x--0--0--0--|--0------x--0--0--0-------|----------------------|
|-----------------|--------------------------|----------------------|
|-----------------|--------------------------|----------------------|   




    Red               Running  red             Play for real


                                                                                                                        


|----14--------|-2-----x--2--2---3----|--2------x--2--0--0-------|---15------------------|
|-------15-----|-3-----x--3--3---3----|--3------x--3--3--3-------|------------15---------|
|-----------14-|-2-----x--2--2---2----|--2------x--2--2--2-------|--------------------14-|
|--------------|-0-----x--0--0---0----|--0------x--0--0--0-------|-----------------------|
|--------------|----------------------|--------------------------|-----------------------|
|--------------|----------------------|--------------------------|-----------------------|




The toy can feel    Hole               In your head                     You dont shout


                                                                                                                        


|----14------------|--0----------------|--3----------------------|--2-------3-------2-----|
|-------15---------|--1----------------|--3----------------------|--3-------3-------3-----|
|---------------14-|--0----------------|--0----------------------|--2-------2-------2-----|
|------------------|--2----------------|--0----------------------|--0-------0-------0-----|
|------------------|--3----------------|--2----------------------|------------------------|
|------------------|-------------------|--3----------------------|------------------------|




You’re spoon fed    If you dont know                              Electric co


                                                                                                                        


|--0---------------------|--3------------------------|--2--3--2--0--2-|
|--1---------------------|--3------------------------|--3--3--3--3--3-|
|--0---------------------|--0------------------------|--2--2--2--2--2-|
|--2---------------------|--0------------------------|--0--0--0--0--0-|
|--3---------------------|--2------------------------|----------------|
|------------------------|--3------------------------|----------------|




      If you dont.....                                Electric co


                                                                                                                        


|----------------|-----------------|-----------------|-----------------|
|----------------|-----------------|-----------------|-----------------|
|2-----5-----4---|---9-----11--7---|-2-----5-----4---|---12--14--11----|
|0-0-0-0-0-0-0-0-|-0-0-0-0-0-0-0-0-|-0-0-0-0-0-0-0-0-|-0-0-0-0-0-0-0-0-|
|----------------|-----------------|-----------------|-----------------|
|----------------|-----------------|-----------------|-----------------|
|----------------|-----------------|-----------------|-----------------|
|----------------|-----------------|-----------------|-----------------|
|2-----5-----4---|---9-----11--7---|-2-----5-----4---|-----------------|
|0-0-0-0-0-0-0-0-|-0-0-0-0-0-0-0-0-|-0-0-0-0-0-0-0---|-----------------|
|----------------|-----------------|-----------------|-----------------|
|----------------|-----------------|-----------------|-----------------|




                                                                        harmonics


                                                                                                                        


|---7--------------------|---7-----------------------|-----7------------------------|
|---9--------------------|---9-----------------------|-----9----------------(12)----|
|---9--------------------|---9-----------------------|-----9----------------(12)----|
|---9--------------------|---9-----------------------|-----9----------------(12)----|
|---7--------------------|---7-----------------------|-----7------------------------|
|---7--------------------|---7-----------------------|-----7------------------------|
|---7--------------------|---7-----------------------|-------------------------(7)---|
|---9--------------------|---9-----------------------|-----(12)--------(7)-----(7)---|
|---9--------------------|---9-----------------------|-----(12)--------(7)-----------|
|---9--------------------|---9-----------------------|-----(12)--------(7)-----------|
|---7--------------------|---7-----------------------|-------------------------------|
|---7--------------------|---7-----------------------|-------------------------------|
|---------------------|----------------------|----------------------------|
|---------------------|----------------------|----------------------------| Ad lib here with
|---/7--7-7-7-7-7-7-7-|-7-7-7-7-7-7-7-7-7-7-7|-7-7-7-7-7-7-7-7-7-7-7-7/---| harmonics and
|---------------------|----------------------|----------------------------| bends
|---------------------|----------------------|----------------------------|
|---------------------|----------------------|----------------------------|




SOLO


                                                                                                                        


|----------------------------------------------------------------------------------|
|-----------15---------------15----------15----------15----------15----------15----|
|--17-17-16-----16--17-17-16----16-17-16----16-17-16----16-17-16----16-17-16----16-|
|----------------------------------------------------------------------------------|
|----------------------------------------------------------------------------------|
|----------------------------------------------------------------------------------|
|--------------------------------|----------------------------------|
|-16/17-16-14-12-11-12-9/10-7-2--|-16/17-16-14-12-11-12-9/10-7-2----|
|----------------------0---------|-----------------------------0----|
|--------------------------------|----------------------------------|
|--------------------------------|----------------------------------|
|--------------------------------|----------------------------------|
|-----------------------------|-------------------------------|---------------------------|
|-----------------------------|-------------------------------|---------------------------|
|-----2------4------5------7--|-----2-------4-----5----7------|-----------muted by palm---|
|--0-------0------0-----0-----|--0--------0----0----0---------|-0-0-0-0-0-0-0-0-0-0-0-0-0-|
|-----------------------------|-------------------------------|---------------------------|
|-----------------------------|-------------------------------|---------------------------|
|-------15----------14----------15----------14------|
|-x-x-x----15-x-x-x----13-x-x-x---15--x-x-x----13---|
|---------------------------------------------------|
|---------------------------------------------------|
|---------------------------------------------------|
|---------------------------------------------------|
|----15--------14--------15--------14------|---15-----14----15----14-----15-|
|--------15---------13--------15--------13-|------15-----13----15----13--13-|
|------------------------------------------|--------------------------------|
|------------------------------------------|--------------------------------|
|------------------------------------------|--------------------------------|
|------------------------------------------|--------------------------------|
|--0-------------------------|--3-------------------|--2--3-2-0-2---|
|--1-------------------------|--3-------------------|--3--3-3-3-3---|
|--0-------------------------|--0-------------------|--2--2-2-2-2---|
|--2-------------------------|--0-------------------|--0--0-0-0-0---|
|--3-------------------------|--2-------------------|---------------|
|----------------------------|--3-------------------|---------------|




  If you dont know                                        Electric co


                                                                                                                        


|--0---------------------|--3------------------------|--2--3--2--0--2-|
|--1---------------------|--3------------------------|--3--3--3--3--3-|
|--0---------------------|--0------------------------|--2--2--2--2--2-|
|--2---------------------|--0------------------------|--0--0--0--0--0-|
|--3---------------------|--2------------------------|----------------|
|------------------------|--3------------------------|----------------|




    If you dont.....                                       Electric co


Repeat above how ever many times


                                                                                                                        


|----------------|-----------------|-----------------|-----------------|
|----------------|-----------------|-----------------|-----------------|
|2-----5-----4---|---9-----11--7---|-2-----5-----4---|---12--14--11----|
|0-0-0-0-0-0-0-0-|-0-0-0-0-0-0-0-0-|-0-0-0-0-0-0-0-0-|-0-0-0-0-0-0-0-0-|
|----------------|-----------------|-----------------|-----------------|
|----------------|-----------------|-----------------|-----------------|
|----------------|-----------------|-----------------|-----------------|
|----------------|-----------------|-----------------|-----------------|
|2-----5-----4---|---9-----11--7---|-2-----5-----4---|-----------------|
|0-0-0-0-0-0-0-0-|-0-0-0-0-0-0-0-0-|-0-0-0-0-0-0-0---|-----------------|
|----------------|-----------------|-----------------|-----------------|
|----------------|-----------------|-----------------|-----------------|
|--2-------2-----2----|--2---2-----2------|--3----3----3------|---3--------3-----5----3---|
|--3-------3-----3----|--3---3-----3------|--3----3----3------|---3--------3-----3----3---|
|--2-------2-----2----|--2---2-----2------|--2----2----2------|---2--------2-----2----2---|
|--0-------0-----0----|--0---0-----0------|--0----0----0------|---0--------0-----0----0---|
|---------------------|-------------------|-------------------|---------------------------|
|---------------------|-------------------|-------------------|---------------------------|




or


                                                                                                                        


|--5------------------|--5----------------|-5-----------------|---5-------5-----5---3---|
|--7------------------|--7----------------|-8-----------------|---8-------8-----6---4---|
|--7------------------|--7----------------|-7-----------------|---7-------7-----7---5---|
|--7------------------|--7----------------|-7-----------------|---7-------7-----7---5---|
|--5------------------|--5----------------|-5-----------------|---5-------5-----5---3---|
|--5------------------|--5----------------|-5-----------------|---5-------5-----5---3---|


Important: The song above is NOT stored on the Chordie server. The original song is hosted at membres.lycos.fr. Chordie works as a search engine and provides on-the-fly formatting. Chordie does not index songs against artists'/composers' will. To remove this song please click here.

This song is displayed as text-only. Transposing and tuning is only available for chordpro-songs.

Login - add to songbook

Rating click stars to rate

Layout
Accuracy

SHARE PAGE  




You need to log in to post comments