Guitar Tabs, Chords and Lyrics


all i want is you   U2









Date: Tue, 16 Dec 1997 21:17:23 -0800 (PST)
From: Campbell James 
Subject: U2 Tab ----> All I want is you


 TAB: "ALL I WANT IS YOU" (U2) Transcribed by Campbell James

Ok, this is very rough and some bits I just don't have a clue about. Please, 
if you have any corrections/suggestions, e-mail them to me at 
Corbzz@hotmail.com

***TUNE YOUR GUITAR DOWN 1/2 STEP*** 

Ok, this verse is pritty much repeated over and over again

e--0--0--0--0--0--0--0--0--0--0--0--0--0--0--0--0
b--2--2--0--2--2--0--2--0--3--3--3--3--3--3--3--3
g--2--2--2--2--2--2--2--2--2--2--2--2--2--2--2--2   LET THE NOTES RING!!
d--2--2--2--2--2--2--2--2--0--0--0--0--0--0--0--0
a--0--0--0--0--0--0--0--0------------------------
e--0--------0--------0---------------------------

"You say you want, diamonds on a ring of gold, you say you want your story 
to reamin untold but all the promises we made from the cradle to the grave 
when all I want is you"

Ok, I don't know the bits for "You say you'll give me a highway with no one 
on it treasure just to look upon it all the riches in the night"

Them, hen he sings, "You say, you'll give me eyes in a moon of blindness a 
river in a time of dryness a harbour in the tempest" this little riff is 
played

e------5-----5-----5-----5 
b--5------5-----5-----5--

At "But all the promises we made from the cradle to the grave" part, go to this little riff: 

e-----2-----2-----2-----2-----2-----2-----2-----2-----2-----2-----2---
b--2-----2-----2-----2-----3-----3-----3-----3-----2-----2-----2-----2 

e--2-----2-----2-----2-----2
b-----3-----3-----3-----3---

At "When all I want is you" play this riff: 

e-----5-----5-----5-----5-----5-----5-----5-----5-
b--5-----5-----5-----5-----5-----5-----5-----5---- 

Ok, I get lost about here at the end of "all I want is you" and during "You say you want your 
love to work out right, to last with me through the night to last with me through the night 
you say you want a dfiamond on a ring of gold your story to remain untold, you story to 
remain untold, your love not to grow cold all the promises we made from the cradle to the grave 
when all I want is you" 

Later, at "Your love, all I want is your love, all I want is your love...." Switch to this little riff:

e-9--9--9--9--9--9--9--9--9--9--9--9--9--9--9--9- 
b-5--5--5--5--7--7--7--7--5--5--5--5--7--7--7--7- 

then The solo: 

e-17-----17-----17-----17-----17-----17-----17-----17-----17-----17----
b-----14-----14-----14-----14-----14-----15-----15-----15-----15-----15

e--------17-----
b---15----------

e-----17-----17-----17-----17------------17-------17-------17-------17
b-14-----14-----14-----14------14---14-------15-------15-------15------ 

e-------17-------------17-
b--15-------15---15-------

e------------17------17------17------17------17------17-------17------17
b-17---17------17------17------17------17------17-------17------17------

e-------17-
b--17------ 

e--------------17-----------17--------------17----------------17--------
b--17---17---------17---17-------17---17---------17---17---------17---17

e-20-------------20------------20------------20-------------20----------
b------17---17---------17---17------17---17-------17---17-------17---17-

e---20---21-
b-----------


And I lose it again here after the solo  :o(

PLEASE......ANY ADDITIONS....CORRECTIONS....SUGGESTIONS....PLEASE E-MAIL 
ME ---> CORBZZ@HOTMAIL.COM







Important: The song above is NOT stored on the Chordie server. The original song is hosted at tabfu.thudspace.net. Chordie works as a search engine and provides on-the-fly formatting. Chordie does not index songs against artists'/composers' will. To remove this song please click here.

This song is displayed as text-only. Transposing and tuning is only available for chordpro-songs.

Login - add to songbook

Rating click stars to rate

Layout
Accuracy

SHARE PAGE  




You need to log in to post comments