Guitar Tabs, Chords and Lyrics


macy's day parade   Green Day



Date: Monday October 16, 2000

Group: Green Day
Album: Warning
Released: 2000 reprise records
Track: 12
Title: macy's day parade
verse

|----------------------------------------------------------------------------------
|----------------------------------------------------------------------------------
|-8-8--8-8-8--8-8-8--8-8-8--6-6-6--6-6-6--6-6-6--6-6-6----------------3-3-3--3-3-3-
|-9-9--9-9-9--9-9-9--9-9-9--7-7-7--7-7-7--7-7-7--7-7-7--2-2-2--2-2-2--4-4-4--4-4-4-
|-9-9--9-9-9--9-9-9--9-9-9--7-7-7--7-7-7--7-7-7--7-7-7--2-2-2--2-2-2--4-4-4--4-4-4-
|-7-7--7-7-7--7-7-7--7-7-7--5-5-5--5-5-5--5-5-5--5-5-5--0-0-0--0-0-0--2-2-2--2-2-2-

 ----------------------------|
 ----------------------------|
 -8-8-8--8-8-8--8-8-8--8-8-8-|
 -9-9-9--9-9-9--9-9-9--9-9-9-|
 -9-9-9--9-9-9--9-9-9--9-9-9-|
 -7-7-7--7-7-7--7-7-7--7-7-7-|

post verse

|----------------------------------------------------------------------------------
|----------------------------------------------------------------------------------
|---------------------------3-3-3--3-3-3--3-3-3--3-3-3-----------------------------
|-2-2--2-2-2--2-2-2--2-2-2--4-4-4--4-4-4--4-4-4--4-4-4--2-2-2--2-2-2--2-2-2--2-2-2-
|-2-2--2-2-2--2-2-2--2-2-2--4-4-4--4-4-4--4-4-4--4-4-4--2-2-2--2-2-2--2-2-2--2-2-2-
|-0-0--0-0-0--0-0-0--0-0-0--2-2-2--2-2-2--2-2-2--2-2-2--0-0-0--0-0-0--0-0-0--0-0-0-

 ----------------------------|
 ----------------------------|
 -3-3-3--3-3-3--3-3-3--3-3-3-|
 -4-4-4--4-4-4--4-4-4--4-4-4-|
 -4-4-4--4-4-4--4-4-4--4-4-4-|
 -2-2-2--2-2-2--2-2-2--2-2-2-|

chorus

|------------------------------------------------------------------------------------|
|------------------------------------------------------------------------------------|
|-8-8-8--8-8-8--5-5-5--3-3-3----------------3-3-3--3-3-3--8-8-8--8-8-8--8-8-8--8-8-8-|
|-9-9-9--9-9-9--6-6-6--4-4-4--2-2-2--2-2-2--4-4-4--4-4-4--9-9-9--9-9-9--9-9-9--9-9-9-|
|-9-9-9--9-9-9--6-6-6--4-4-4--2-2-2--2-2-2--4-4-4--4-4-4--9-9-9--9-9-9--9-9-9--9-9-9-|
|-7-7-7--7-7-7--4-4-4--2-2-2--0-0-0--0-0-0--2-2-2--2-2-2--7-7-7--7-7-7--7-7-7--7-7-7-|

lyrics

today's the macy's day parade the night of the living dead is on it's way
with a credit report for a duty call 
it's a lifetime guarantee stuffed in a coffin "10% more free" 
red light special at the mausoleum
give me something that i need satisfaction guaranteed to you
what's the consolation prize econimy sized dreams of hope
when i was a kid i thought i wanted all the things that i haven't got
oh but i learned the hardest way
then i realized what it took to tell the differnce between thieves and crooks
when all along it was me and you
give me something that I need satisfaction guaranteed
because i'm thinking about a brand new hope
the one i've never known
'cause know i know it's all that i wanted
what's the consolation prize economy sized dreams of hope
give me something that i need satisfaction guarnteed
because i'm thinking about a brand new hope
the one i've never known and where it goes
and i'm thinking about the only road
the one i've never known and where it goes
because i'm thinking about a brand new hope
the one i've never known 'cause now i know
it's all that i wanted


Important: The song above is NOT stored on the Chordie server. The original song is hosted at www.geocities.com. Chordie works as a search engine and provides on-the-fly formatting. Chordie does not index songs against artists'/composers' will. To remove this song please click here.

This song is displayed as text-only. Transposing and tuning is only available for chordpro-songs.

Login - add to songbook

Rating click stars to rate

Layout
Accuracy

SHARE PAGE  




You need to log in to post comments