Guitar Tabs, Chords and Lyrics


Wahre Liebe  Die Toten Hosen

1:|-2-|-3-|-0-|-2-|-3-|-0-|-3-|-0-|-2-|


2:|-3-|-3-|-3-|-3-|-3-|-3-|-0-|-2-|-2-|


3:|-2-|-2-|-2-|-4-|-4-|-4-|-0-|-2-|-2-|

4:|-0-|-0-|-0-|-4-|-4-|-4-|-0-|-2-|-4-|
5:|-0-|-0-|-0-|-2-|-2-|-2-|-2-|-0-|-4-|
6:|-0-|-0-|-0-|-2-|-2-|-2-|-3-|-0-|-2-|
Zu[G]sammen schauen sie sich jeden Abend [A]Videos an
Einmal die [G]Woche der Beweis, dass es auch im [A]Bett noch klappt
D D^D4^D9 D D^D4^D9 h h^h4^h9 h h^h4^h9
Einbauküche auf Fünfjahres-Kredit

D D^D4^D9 D D^D4^D9 h h^h4^h9 h h^h4^h9
Kinder für die man nur das Beste will

Den [G]Sommerurlaub bucht er schon im [A]Winter fest

Sie sagt sich [G]immer wieder, dass sie [A]glücklich ist


D f h A
Das ist Liebe
D D^D4^D9 D D^D4^D9 h h^h4^h9 h h^h4^h9
Wann kommt sie jemals klar mit dem Haushaltsgeld

D D^D4^D9 D D^D4^D9 h h^h4^h9 h h^h4^h9
Ob er mir niemals sagt, wie ihm die neue Frisur gefällt

[G]Seitensprünge, von denen er nicht zu er[A]zählen wagt

Al[G]leine verreisen, damit sie wieder frei [A]atmen kann


D f h A
Das ist Liebe
Solo:

Bonjour, Olé
1:|------------|------------|-8888-8-8---|------------|
2:|-5--555-555-|--5555555--5|6-----------|------------|
3:|------------|------------|------------|------------|
4:|------------|------------|------------|--3—3^5--3--|
5:|------------|------------|------------|------------|
6:|------------|------------|------------|------------|
1:|------------|0-----------|---555—-555-|-5—-5^7--5--|
2:|---------0--|--3--0------|---666--666-|-6—-6^8--6--|
3:|------------|---------2--|---555--555-|------------|
4:|2--222------|------------|---555--555-|------------|
5:|------------|------------|8--888--888-|------------|
6:|------------|------------|------------|------------|

sollte bis dahin ungefähr stimmen, Weiter kann ichs leider noch nicht.


D f h A
Das ist Liebe
D f h A
Flitterwochen - das ist wahre Liebe

D f h A
Blumensträuße - das ist aus Liebe

D f h A
Einbauküchen - alles aus Liebe
D f h A
Seitensprünge, Scheidungsrichter - sowas kommt von Liebe
D f h A
Frauenhäuser, Gitterstäbe - das war die große Liebe


fragen? verbesserungen? mailto totaldestruction@gmx.de


puuh, erstes tab feddich :)

© 2005 by Martin Wieczorek

Important: The song above is NOT stored on the Chordie server. The original song is hosted at www.guitaretab.com. Chordie works as a search engine and provides on-the-fly formatting. Chordie does not index songs against artists'/composers' will. To remove this song please click here.

Text color:
Chord color:
Chord grids: 
Font size:    
Page size: 

A G
variations - click chord images

Login - add to songbook

Transpose chords

Tuning

Rating click stars to rate

Layout
Accuracy

SHARE PAGE  




You need to log in to post comments