Chordie logo

409 In Your Coffeemaker     Green Day



                             409 IN YOUR COFFEEMAKER
                            As recorded by Green Day
              (From the 1991 Album 1,039 SMOOTHED OUT SLAPPY HOURS)

Words and Music by Green Day
Arranged by Green Day
Transcribed by Aaron Hetherington (Donkey Fly)

This Is A Accurate Version Of 409 IN YOUR COFFEEMAKER.....There's a good solo included
unlike the other tabs.....again its done on PTE for more accuracy
   Intro
    Q=155
   4/4
    Gtr I
                 4x
||---------------||----|
||o-------------o||----|
||--5-5----------||----|
||--5-5---4-5----||----|
||o-3-3---4-5-5-o||----|
||------0-2-3-3--||----|


   Verse
                                   8x
||---------------------------------||----|
||o-------------------------------o||----|
||---------------------------------||----|
||--5-5-5-5-5-5-5-3-3-3-3-3-3-3-3--||----|
||o-5-5-5-5-5-5-5-3-3-3-3-3-3-3-3-o||----|
||--3-3-3-3-3-3-3-1-1-1-1-1-1-1-1--||----|


   Chorus
                         3x
||-----------------------||--------------------------|
||o---------------------o||--------------------------|
||--5-5-5-5-5------------||-5-5-5-5-5-7-7-7-7-7-7----|
||--5-5-5-5-5-5-5-5-5-5--||-5-5-5-5-5-7-7-7-7-7-7----|
||o-3-3-3-3-3-5-5-5-5-5-o||-3-3-3-3-3-5-5-5-5-5-5----|
||------------3-3-3-3-3--||--------------------------|


   Interlude
   4/4
    Gtr I
                 4x
||---------------||----|
||o-------------o||----|
||--5-5----------||----|
||--5-5---4-5----||----|
||o-3-3---4-5-5-o||----|
||------0-2-3-3--||----|


   Verse
                                   8x
||---------------------------------||----|
||o-------------------------------o||----|
||---------------------------------||----|
||--5-5-5-5-5-5-5-3-3-3-3-3-3-3-3--||----|
||o-5-5-5-5-5-5-5-3-3-3-3-3-3-3-3-o||----|
||--3-3-3-3-3-3-3-1-1-1-1-1-1-1-1--||----|


   Chorus
                         3x
||-----------------------||--------------------------|
||o---------------------o||--------------------------|
||--5-5-5-5-5------------||-5-5-5-5-5-7-7-7-7-7-7----|
||--5-5-5-5-5-5-5-5-5-5--||-5-5-5-5-5-7-7-7-7-7-7----|
||o-3-3-3-3-3-5-5-5-5-5-o||-3-3-3-3-3-5-5-5-5-5-5----|
||------------3-3-3-3-3--||--------------------------|


                 4x
||---------------||----|
||o-------------o||----|
||--5-5----------||----|
||--5-5---4-5----||----|
||o-3-3---4-5-5-o||----|
||------0-2-3-3--||----|


||----------------------------||----|
||o--------------------------o||----|
||----------------------------||----|
||--5-5---------3-3-----------||----|
||o-5-5--2-3-2--3-3--0-1-0---o||----|
||--3-3---------1-1-----------||----|


                              4x
||----------------------------||----|
||o--------------------------o||----|
||----------------------------||----|
||--5-5---------3-3-----------||----|
||o-5-5--x-x-x--3-3--x-x-x---o||----|
||--3-3---------1-1-----------||----|


 Solo
|-15-17-17-15-17--17-15--17-17-15-17-17-15--17-17--15-17-17-15-17-17--15-17--17-15-17-17-15--17-17--15-15-|
|-17-20-20-17-20--20-17--20-20-17-20-20-17--20-20--17-20-20-17-20-20--17-20--20-17-20-20-17--20-20--17----|
|-19-------19--------19--------19-------19---------19-------19--------19--------19-------19---------19----|
|---------------------------------------------------------------------------------------------------------|
|---------------------------------------------------------------------------------------------------------|
|---------------------------------------------------------------------------------------------------------|
|
| Gtr II
|---------------------------------------------------------------------------------------------------------|
|---------------------------------------------------------------------------------------------------------|
|--6--6--6-------------------6--6--6-------------------6--6--6-------------------6--6---------------------|
|--6--6--6--5-(5)--6-(6)--6--6--6--6--5-(5)--6-(6)--6--6--6--6--5-(5)--6-(6)--6--6--6--5-(5)--6-(6)--6----|
|--4--4--4--5-(5)--6-(6)--6--4--4--4--5-(5)--6-(6)--6--4--4--4--5-(5)--6-(6)--6--4--4--5-(5)--6-(6)--6----|
|-----------3-(3)--4-(4)--4-----------3-(3)--4-(4)--4-----------3-(3)--4-(4)--4--------3-(3)--4-(4)--4----|


|-(15)---15---14----12--14-12-12-14-(14)------------10-14-12-12----12--12-14--12-19-17-------17-(17)-------|
|----------------------------------------13-----12--------------14---------------------19-17---------------|
|--------------------------------------------14------------------------------------------------------------|
|----------------------------------------------------------------------------------------------------------|
|----------------------------------------------------------------------------------------------------------|
|----------------------------------------------------------------------------------------------------------|
|
|----------------------------------------------------------------------------------------------------------|
|----------------------------------------------------------------------------------------------------------|
|---6--6--6-----------------6--6--6---------------------6--6--6--------------------------------------------|
|---6--6--6-5-(5)-6-(6)--6--6--6--6---5--(5)--6-(6)--6--6--6--6--5-(5)--6-(6)--6--6-----6--6--6---6--6-6-6-|
|---4--4--4-5-(5)-6-(6)--6--4--4--4---5--(5)--6-(6)--6--4--4--4--5-(5)--6-(6)--6--6-----6--6--6---6--6-6-6-|
|-----------3-(3)-4-(4)--4------------3--(3)--4-(4)--4-----------3-(3)--4-(4)--4--4-----4--4--4---4--4-4-4-|


   Chorus
                         3x
||-----------------------||--------------------------|
||o---------------------o||--------------------------|
||--5-5-5-5-5------------||-5-5-5-5-5-7-7-7-7-7-7----|
||--5-5-5-5-5-5-5-5-5-5--||-5-5-5-5-5-7-7-7-7-7-7----|
||o-3-3-3-3-3-5-5-5-5-5-o||-3-3-3-3-3-5-5-5-5-5-5----|
||------------3-3-3-3-3--||--------------------------|


                         3x
||-----------------------||--------------------------|
||o---------------------o||--------------------------|
||--5-5-5-5-5------------||-5-5-5-5-5-7-7-7-7-7-7----|
||--5-5-5-5-5-5-5-5-5-5--||-5-5-5-5-5-7-7-7-7-7-7----|
||o-3-3-3-3-3-5-5-5-5-5-o||-3-3-3-3-3-5-5-5-5-5-5----|
||------------3-3-3-3-3--||--------------------------|


    Q=155
   4/4
    Gtr I
                 4x
||---------------||----|
||o-------------o||----|
||--5-5----------||----|
||--5-5---4-5----||----|
||o-3-3---4-5-5-o||----|
||------0-2-3-3--||----|



                              3x
||----------------------------||----|
||o--------------------------o||----|
||----------------------------||----|
||--5-5--4-5-4--3-3--2-3-2----||----|
||o-5-5--2-3-2--3-3--0-1-0---o||----|
||--3-3---------1-1-----------||----|


|------------------------------------|
|------------------------------------|
|------------------------------------|
|-5-5--4-5-4--3-3---------------x----|
|-5-5--2-3-2--3-3---------------x----|
|-3-3---------1-1---------------x----|


Tablature Legend
----------------
 h   - hammer-on
 p   - pull-off
 b   - bend
 pb  - pre-bend
 r   - bend release (if no number after the r, then release immediately)
 /\  - slide into or out of (from/to "nowhere")
 s   - legato slide
 S   - shift slide
  - natural harmonic
[n]  - artificial harmonic
n(n) - tapped harmonic
 ~   - vibrato
 tr  - trill
 T   - tap
 TP  - trem. picking
 PM  - palm muting
\n/  - tremolo bar dip; n = amount to dip
 \n  - tremolo bar down
 n/  - tremolo bar up
/n\  - tremolo bar inverted dip
 =   - hold bend; also acts as connecting device for hammers/pulls
   - volume swell (louder/softer)
 x   - on rhythm slash represents muted slash
 o   - on rhythm slash represents single note slash

Misc Legend
-----------
 |  - bar
||  - double bar
||o - repeat start
o|| - repeat end
*|  - double bar (ending)
 :  - bar (freetime)
 $  - Segno
 &  - Coda
Tempo markers -  = BPM(8/16=s8/s16), where s8 = swing 8ths, s16 = swing 16ths



*****************************************************************************
Well That's all folks , if anything is incorrect leave a comment and ill fix it

Oh Ye , LYRICS

I sit in the state of a daydream
With all of your words flying over my head	(Verse 1)
Even more time gets wasted in a daze

It should seem obvious to you
Your screams and cries are never going to work	(Verse 2)
And all of your time gets wasted in my daze

And I'm looking back now
At where I have gone wrong
And why I could not seem			(Chorus)
To get along
My interests are longing
To break through these chains
These chains that control
My future's aim

(Verse 1)

Maybe I'm too damn lazy
Or maybe I was just brainwashed
To think that way				(Verse 3)
And all of your time gets wasted in my daze

(Chorus)

I'm looking
Back now at
Where I have
Have gone wrong
And why I					(Bridge)
Could not seem
Could not seem
To get along



Important: The song above is NOT stored on the Chordie server. The original song is hosted at www.guitaretab.com. Chordie works as a search engine and provides on-the-fly formatting. Chordie does not index songs against artists/composers will. To remove this song please click here.

This song is displayed as text-only. Transposing and tuning is only available for chordpro-songs.

Rating click stars to rate

Layout
Accuracy

SHARE PAGE  

You need to log in to post comments