Chordie logo

My Generation   Green Day



-------------------------------------------------------------------------------
			     MY GENERATION SOLO-Green Day
-------------------------------------------------------------------------------
Tabbed by: Thedboy

| /  slide up
| \  slide down
| h  hammer-on
| p  pull-off
| ~  vibrato
| +  harmonic
| x  Mute note
| s  stop chord immediately after you’ve played it.

Tuning: Down half a step

I downloaded a tab for the whole kerplunk album, which had the solos for Strangeland, 
Best thing in Town and My Generation, so here is the solo of My Generation.


e----------------------------------7---14-7-10p7----7-10b-10b-10b-10-7----7h10p7-|
B—7~--7~---7~---7~---7h10p7-7----7-10b-----------10--------------------10--------|
G-9b~-9b~--9b~--9b~-----------10-------------------------------------------------| 
D--------------------------------------------------------------------------------|
A--------------------------------------------------------------------------------|
E--------------------------------------------------------------------------------|

e-----------------------------------------------------------------------------|
B—10-8-7------------------------------------------------------------7-7-10b---|
G--------9b-7---7~-7-7h9p7---7---------------------7-7-7h9p7---7-9b---------10|
D-------------9------------9---9-8-7-7-7h9p7---7-9---9-------9----------------|
A--------------------------------------------9--------------------------------|
E-----------------------------------------------------------------------------|
  
e-7h10p7----7-10b-10b-12-10h12p10-12b-12b-12b-12-10------------7-7h10p7------|
B—-------10------------------------------------------12-12p10-----------10-8-|
G----------------------------------------------------------------------------|
D----------------------------------------------------------------------------|
A----------------------------------------------------------------------------|
E----------------------------------------------------------------------------|

e-5-3-2-0-2---3p2-0----------------------------------------------------------|
B—------0-0---0---0-5h7p5------7-7~--7~--7~--7~--7~--7~--7~--7~--------------|
G-----------0--------------7h9-7-9b~-9b~-9b~-9b~-9b~-9b~-9b~-9b~-------------|
D----------------------------------------------------------------------------|
A----------------------------------------------------------------------------|
E----------------------------------------------------------------------------|
==============================================================================================


Important: The song above is NOT stored on the Chordie server. The original song is hosted at www.guitaretab.com. Chordie works as a search engine and provides on-the-fly formatting. Chordie does not index songs against artists/composers will. To remove this song please click here.

This song is displayed as text-only. Transposing and tuning is only available for chordpro-songs.

Login - add to songbook

Rating click stars to rate

Layout
Accuracy

SHARE PAGE  

You need to log in to post comments