Guitar Tabs, Chords and Lyrics


Love Needs A Heart  Jackson Browne

-------------------------------------------------------------------------------



-------------------------------------------------------------------------------

    [F]    [F/A]      [Bbsus2]         [Bb]     [Bbm/Db]         [F/C]      [G/B]      [Bb/C]       [C#dim7]                               
e|--1----1------1------1------x-------1-----3-----3------x-------------------|
B|--1----1------1------3------2-------1-----0-----3------5-------------------|
G|--2----2------3------3------3-------2-----0-----3------3-------------------|
D|--3----3------3------3------3-------3-----0-----3------5-------------------|
A|--3----0------1------1------4-------3-----2-----3------4-------------------|
E|--1----x------x------x------x-------x-----x-----x------x-------------------|

C Dm Dm(barr) Am7(barr) G7(barr) Bdim Bb/A Bb/G Bb/F#

e|-0---1------5----------5----------3----------x------x------x-------x-------|
B|-1---3------6----------5----------3----------3------3------3-------3-------|
G|-0---2------7----------5----------4----------2------3------3-------3-------|
D|-2---0------7----------5----------3----------3------3------3-------3-------|
A|-3---x------5----------7----------5----------2------0------x-------x-------|
E|-x---x------x----------5----------3----------x------x------3-------2-------|


(intro)
[F]        [F/A]        [Bbsus2]         [Bbm/Db]         [F/C]  [G/B] [Bb/C] 
[F]Maybe the [F/A]hardest thing I[Bb]'ve ever done
Was to [F/C]walk a[C#dim7]way from you[Dm]
[F]Leaving be[F/A]hind the life that [Bb]we'd begun
I s[F]plit my[C]self in [Bb]two

[F]Proud and alone, [C/G]cold as a stone
Rolling [Dm]down that [C]hill into the [Bb]night
I could [F]see the surprise [C/G]and the hurt in your eyes
From [A7]behind each flashing city [Dm]light
[Bb]Love needs a hear[Dm-C-Bb]t and I need to find[Dm-C-Bb]
If [Bb]love needs a h[C]eart like m[Bb]ine      [F]

Dm(barr) Am7(barr)
Love won't come near me, she don't even hear me
F G7(barr)
She walks past my vacancy sign
[Bb]Love needs a hear[Dm-C-Bb]t, trusting and blin[Dm-C-Bb]d
[Bb]I wish that h[C]eart was min[Dm]e

(break)
[F]        [F/A]        [Bbsus2]           [-]       [F]  [C] [Bb] 
[F]Proud and alone, [C/G]cold as a stone
I'm af[Dm]raid to be[C]lieve the things I [Bb]feel
I can cr[F]y with the best I can [C/G]laugh with the rest
But I[A7]'m never sure when it's [Dm]real
And it [Bb]may be the har[Dm-C-Bb]dest thing I've ever done[Dm-C-Bb]
But apart [Bb]from a[Bdim]ll that I hope to [C]find
Where's the [Bb]heart that's been l[C]ooking for [Dm]mine?
[Bb]I hope it [C]finds me in [Bb]time   [Bb/A]        [Bb/G]        [Bb/F#]

[Bb]Love needs a hear[Dm-C-Bb]t and I need to find[Dm-C-Bb]
If [Bb]love needs a h[C]eart like m[Bb]ine      [F]

Important: The song above is NOT stored on the Chordie server. The original song is hosted at www.guitaretab.com. Chordie works as a search engine and provides on-the-fly formatting. Chordie does not index songs against artists'/composers' will. To remove this song please click here.

Text color:
Chord color:
Chord grids: 
Font size:    
Page size: 

A7 Bb Bb/C Bb/F# Bb/G Bbm/Db Bbsus2 Bdim C C#dim7 C/G Dm F F/C G/B
variations - click chord images

Login - add to songbook

Transpose chords

Tuning

Rating click stars to rate

Layout
Accuracy

SHARE PAGE  




You need to log in to post comments