Guitar Tabs, Chords and Lyrics


Comfortably Numb  Staind

E-----------0---------------0-0--------0-----------------0--0--0---0------|


B--------------------------------------------------------0--0--0-----0----|


G-------4---------4--------------2------2----------------4--4--4----------|

D------4-----------4-----2-------2------------------2----4--4--4-------4--|
A-----2---------------0--0--------------------------2----2--2--2----------|
D-------------------------------------------3-x-2-0-0---------------------|
                 [B]                           [Asus]                     [D/F#]       [Em]                        
E----0-----------0---0-----------0------------------0------0---------------|
B------0---------0-----0-----------------------------0------0--------------|
G----------------4------------------4-------2--2--2------------------------|
D----------------4-------4------------------2--2--2---------------------2--|
A---------2------2--------------------------0--0--0------2--------------2--|
D-----------------------------------------------------------------3-x-2-0--|

     [B]                                                                                           
E-------------0---|
B-----------------|
G----4--4--4------|
D----4--4--4------|
A----2--2--2------|
D-----------------|

Repeat regular picking and strums through verse


"H[B]ello, Is there anybody [Asus]in there?
J[D/F#]ust n[Em]od if you can hear me.
I[B]s there anyone home?
[B]Come on, now.
I hear youre f[Asus]eeling down.
Well I[D/F#] can [Em]ease your pain,
Get you [B]on your feet again.
R[B]elax, I need some i[Asus]nformation first.
[D/F#]Just [Em]the basic facts.
Can you s[B]how me where it hurts?
[D]  There is no pain, you are r[Asus]eceving.
A [D]distant ships smoke on the h[Asus]orizon.
[C]  You are only coming through in w[G]aves.
Your l[C]ips move but I cant hear what youre sa[G]yin.
When [D]I was a child caught a f[Asus]ever.
My ha[D]nds felt just like two ba[Asus]lloons.
N[C]ow I got that feeling once a[G]gain.
I cant explain, you would not unde[C]rstand.
This is not how[G] I am.
[Asus]I_____________ [C]have become c[G]omfortably nu[D]mb.
[B]Ok, Just a little [Asus]pinprick.
There'll be no more A[D/F#]HHHHHH[Em]HHH!
yo[B]u may feel a little sick.
Can you [B]stand up?
I do believe its [Asus]working. good.
That'll keep you g[D/F#]oing [Em]for the show.
C[B]ome on its time to go.
[D]There is no pain, you are re[Asus]ceving.
[D]A distant ships smoke on the h[Asus]orizon.
[C]You are only coming through in w[G]aves.
[C]Your lips move but I cant hear what youre s[G]ayin.
[D]When I was a child I caught a fle[Asus]eting glimpse,
O[D]ut of the corner of my [Asus]eye.
I [C]turned to look but it wa[G]s gone.
I cannot put my finger o[C]n it now.
The child is grown, the d[G]ream is lost.
[Asus]I_____________ [C]have become c[G]omfortably nu[D]mb.
For solo keep strumming D, Asus, D, Asus, C, G, C, G


[Asus]I_____________ [C]have become c[G]omfortably nu[D]mb.
That's it im pretty sure thats exactly how Staind plays it. It's a little different than
Floyd's version and the left out one of the solos. Any problems please comment! Thanks -Tysor

Important: The song above is NOT stored on the Chordie server. The original song is hosted at www.guitaretab.com. Chordie works as a search engine and provides on-the-fly formatting. Chordie does not index songs against artists'/composers' will. To remove this song please click here.

Text color:
Chord color:
Chord grids: 
Font size:    
Page size: 

Asus B C D D/F# Em G
variations - click chord images

Login - add to songbook

Transpose chords

Tuning

Rating click stars to rate

Layout
Accuracy

SHARE PAGE  




You need to log in to post comments