Chordie logo

Xanax And Wine   U2



E--------------------------------|
B--------------------------------|
G-----------7--------------------|
D-7-7-5-5-7-7---7-7-5-5-2-2-5-5--|
A-7-7-5-5-7-5---7-7-5-5-2-2-5-5--|
E-5-5-3-3-5-----5-5-3-3-0-0-3-3--|

Repeat until "My cell is ringing..."

E--------------------------------|
B--------------------------------|
G-----------7--------------------|
D-7---5-5-7-7---7---5---2-2------|
A-7---5-5-7-5---7---5---2-2------|
E-5---3-3-5-----5---3---0-0------|

Repeat until "All I want is a picture of you..."

E--------------------------------|
B--------------------------------|
G--------------------------------|
D-xxxxx77777xxxxx77777xxxxx------|
A-xxxxx77777xxxxx77777xxxxx------|
E-xxxxx55555xxxxx55555xxxxx------|

"Save me, save me from myself..."

E-7--7-5-7--7-5-7-5-------|
B--------------------8--8-|
G-------------------------|
D-------------------------|
A-------------------------|
E-------------------------|

E-7--7-5-7--7-5-7-5-------|
B--------------------8--8-|
G-------------------------|
D-------------------------|
A-------------------------|
E-------------------------|

E-5--5-3-5--5-3-5-3--0--0-|
B-------------------------|
G-------------------------|
D-------------------------|
A-------------------------|
E-------------------------|

E-5--5-3-5--5-3-5-3--0--0-|
B-------------------------|
G-------------------------|
D-------------------------|
A-------------------------|
E-------------------------|

E-7--7-5-7--7-5-7-5-------|
B--------------------8--8-|
G-------------------------|
D-------------------------|
A-------------------------|
E-------------------------|

E-7--7-5-7--7-5-7-5-------|
B--------------------8--8-|
G-------------------------|
D-------------------------|
A-------------------------|
E-------------------------|

E-5--5-3-5--5-3-5-3--0--0-|
B-------------------------|
G-------------------------|
D-------------------------|
A-------------------------|
E-------------------------|

E-5--5-3-5--5-3-5-3--0--0-|
B-------------------------|
G-------------------------|
D-------------------------|
A-------------------------|
E-------------------------|


E-7--5--7--5--7-10--------|
B-------------------------|
G-------------------------|
D-------------------------|
A-------------------------|
E-------------------------|

"Xanax and Wine"


E--------------------------------|
B--------------------------------|
G-----------7--------------------|
D-7-7-5-5-7-7---7-7-5-5-2-2-5-5--|
A-7-7-5-5-7-5---7-7-5-5-2-2-5-5--|
E-5-5-3-3-5-----5-5-3-3-0-0-3-3--|

Repeat until "I'm going nowhere..."

E--------------------------------|
B--------------------------------|
G-----------7--------------------|
D-7---5-5-7-7---7---5---2-2------|
A-7---5-5-7-5---7---5---2-2------|
E-5---3-3-5-----5---3---0-0------|

Repeat until "All I want is a picture of you..."

E--------------------------------|
B--------------------------------|
G--------------------------------|
D-xxxxx77777xxxxx77777xxxxx------|
A-xxxxx77777xxxxx77777xxxxx------|
E-xxxxx55555xxxxx55555xxxxx------|

The rest is just these parts repeated.



Important: The song above is NOT stored on the Chordie server. The original song is hosted at www.guitaretab.com. Chordie works as a search engine and provides on-the-fly formatting. Chordie does not index songs against artists/composers will. To remove this song please click here.

This song is displayed as text-only. Transposing and tuning is only available for chordpro-songs.

Login - add to songbook

Rating click stars to rate

Layout
Accuracy

SHARE PAGE  

You need to log in to post comments