Chordie logo

"Psycho"   System Of A Down


Song: "Psycho"
Artist: System of A Down
Album: Toxicity

Tuning: Drop D, Down 1 Step (C,G,C,F,A,D)

^ - bend 1 step up
^(n) - bend 1/2 step and release

INTRO: 
|-(12)-(12)-(12)-(12)-(12)-(12)-(12)-(12)-|
|-----------------------------------------|
|-----------------------------------------|
|-----------------------------------------|
|-----------------------------------------|
|-----------------------------------------|

|-(10)-(10)-(10)-(10)-(10)-(10)-(10)-(10)-|
|-----------------------------------------|
|-----------------------------------------|
|-----------------------------------------|
|-----------------------------------------|
|-----------------------------------------|
Repeat 2 times

|-12^12^13^13^14^14^14^(Keep picking and bending up until 1½)--------|
|--------------------------------------------------------------------|
|--------------------------------------------------------------------|
|--------------------------------------------------------------------|
|--------------------------------------------------------------------|
|--------------------------------------------------------------------|


|--------------------|
|--------------------|
|--------------------|
|-222--222--222--222-|X2
|-222--222--222--222-|
|-222--222--222--222-|

|---------------------|
|---------------------|
|---------------------|
|-3202320232023202320-|
|-3202320232023202320-|(Pick fast)
|-3202320232023202320-|

|--------|
|--------|
|--------|
|-7---10-|
|-7---10-|
|-5---8--|





|--------------------|
|--------------------|
|--------------------|
|-222--222--222--222-|
|-222--222--222--222-|
|-222--222--222--222-|

|---------------------|
|---------------------|
|---------------------|
|-3202320232023202320-|
|-3202320232023202320-|(Pick fast)
|-3202320232023202320-|

|----------------|
|----------------|
|----------------|
|-7---10—--9—-7-9|
|-7---10—--9—-7-9|
|-5---8----7—-5-7|


|---------------------------------------------------------|
|-9--9--9-9----9-----9-10--10-12-13-13^-13-12-13-12-10-10-|
|-X--X--X-X-------------X---------------------------------|
|-6--6--6-6--6---6-6----7---------------------------------|
|---------------------------------------------------------|
|---------------------------------------------------------|

|-----------------------|
|-10---10---10-10-12-10-|
|--X------------X--X--X-|
|--7-7----7-----7--9--7-|
|-----------------------|
|-----------------------|

|--------------------|
|--------------------|
|--------------------|
|-222--222--222--222-|
|-222--222--222--222-|
|-222--222--222--222-|

|---------------------------------------------------------|
|-9--9--9-9----9-----9-10--10-12-13-13^-13-12-13-12-10-10-|
|-X--X--X-X-------------X---------------------------------|
|-6--6--6-6--6---6-6----7---------------------------------|
|---------------------------------------------------------|
|---------------------------------------------------------|

|-----------------------|
|-10---10---10-10-12-10-|
|--X------------X--X--X-|
|--7-7----7-----7--9--7-|
|-----------------------|
|-----------------------|

|--------------------|
|--------------------|
|--------------------|
|-222--222--222--222-|
|-222--222--222--222-|
|-222--222--222--222-|

|---------------------|
|---------------------|
|---------------------|
|-3202320232023202320-|
|-3202320232023202320-|(Pick fast)
|-3202320232023202320-|

|----------------|
|----------------|
|----------------|
|-7---10—--9—-7-9|
|-7---10—--9—-7-9|
|-5---8----7—-5-7|

|---------------------------------------------------------|
|-9--9--9-9----9-----9-10--10-12-13-13^-13-12-13-12-10-10-|
|-X--X--X-X-------------X---------------------------------|
|-6--6--6-6--6---6-6----7---------------------------------|
|---------------------------------------------------------|
|---------------------------------------------------------|

|-----------------------|
|-10---10---10-10-12-10-|

|--X------------X--X--X-|
|--7-7----7-----7--9--7-|
|-----------------------|
|-----------------------|

|--------------------|
|--------------------|
|--------------------|
|-222--222--222--222-|
|-222--222--222--222-|
|-222--222--222--222-|

|---------------------------------------------------------|
|-9--9--9-9----9-----9-10--10-12-13-13^-13-12-13-12-10-10-|
|-X--X--X-X-------------X---------------------------------|
|-6--6--6-6--6---6-6----7---------------------------------|
|---------------------------------------------------------|
|---------------------------------------------------------|

|-----------------------|
|-10---10---10-10-12-10-|
|--X------------X--X--X-|
|--7-7----7-----7--9--7-|
|-----------------------|
|-----------------------|


|--------------------|
|--------------------|
|--------------------|
|-222--222--222--222-|
|-222--222--222--222-|
|-222--222--222--222-|




SOLO:
|--------------------------------------------------------|
|-10h12--10-12-13--12-13-12h13p12------12-------------12-|
|---------------------------------14------14-13-13h14----|
|--------------------------------------------------------|
|--------------------------------------------------------|
|--------------------------------------------------------|

|---------------12-------------------------------------------------|
|-10-12---10-12-----13-12-13-12h13p12------------------12----------|
|-------------------------------------14^(14)^(14)-14-----14-13-13-|
|------------------------------------------------------------------|
|------------------------------------------------------------------|
|------------------------------------------------------------------|

|-----------------------------------|
|-----------------12----------------|
|-13-14-13--13-14----14-13-14----14-|
|-----------------------------14----|
|-----------------------------------|
|-----------------------------------|

|--------------------------------------------------------------|
|-12-12-12-12-12-12-10-12-13-13-13-12-13-12-10-10-10-10-10-10--|
|---9--9--9--9--9--9--9--9--9--9--9--9--9--9--9--9--9--9--9--9-|
|--------------------------------------------------------------|
|--------------------------------------------------------------|
|--------------------------------------------------------------|

|---------------------------------------------------------------|
|-12-12-10-9-9-10-12-12-12-12-12-12-10-12-12-12-12-12-12-10-12--|
|---9--9--9-9-------9--9--9--9--9--9--9--9--9--9--9--9--9--9--9-|
|---------------------------------------------------------------|
|---------------------------------------------------------------|
|---------------------------------------------------------------|

|-10-10-10----------------------------------------|
|----------12-13-12-10-10-10-10-10-10-12---10---9-|
|---9--9--9--9--9--9--9--9--9--9--9--9---9------9-|
|-------------------------------------------------|
|-------------------------------------------------|


Important: The song above is NOT stored on the Chordie server. The original song is hosted at www.ultimate-guitar.com. Chordie works as a search engine and provides on-the-fly formatting. Chordie does not index songs against artists/composers will. To remove this song please click here.

This song is displayed as text-only. Transposing and tuning is only available for chordpro-songs.

Login - add to songbook

Rating click stars to rate

Layout
Accuracy

SHARE PAGE  

You need to log in to post comments