Guitar Tabs, Chords and Lyrics


Saints Are Coming  U2



B|-----------------------------------------------------------|

G|-----------------------------------------------------------|
D|-----------------------------------------------------------|
A|-----------------------------------------------------------|
E|-----------------------------------------------------------|
       [Em]There is a   [G]house in   [D]New orleans
They call the rising sun
And it's been the ruin of many a poor boy
And god i know i'm one


VERSE

I cr[Em]ied to my daddy on the te[Em/D]lephone
How [Bm]long now?
Until the [Em]clouds unroll and y[Em/D]ou come home?
The [Bm]line went
But[Em] the shadows still remain s[Em/D]ince your descent
Your[Bm] descent

BRIDGE

e|--3-0-3-0-3-0-3-0-2-0-2-0-2-0-2-0---------------------------------|
B|----------------------------------3-0-3-0-3-0-3-0-2-0-2-0-2-0-2-0-|
G|------------------------------------------------------------------|
D|------------------------------------------------------------------|
A|------------------------------------------------------------------|
E|------------------------------------------------------------------|


CHORUS

The [E5]saints are [G]coming, the [E5]saints are [G]coming
I [E5]say no matter how I try, I [D5]realise there's no reply
The [E5]saints are [G]coming, the [E5]saints are [G]coming
I [E5]say no matter how I try, I [D5]realise there's no reply

Instrumental/solo
e|--3-0-3-0-3-0-3-0-2-0-2-0-2-0-2-0---------------------------------|
B|----------------------------------3-0-3-0-3-0-3-0-2-0-2-0-2-0-2-0-|
G|------------------------------------------------------------------|  x2
D|------------------------------------------------------------------|
A|------------------------------------------------------------------|
E|------------------------------------------------------------------|

PM.................................................................

e|--3333333333333-22222222222--------------------------------|
B|------------------------------3333333333333-22222222222222-|
G|-----------------------------------------------------------|
D|-----------------------------------------------------------|   x2
A|-----------------------------------------------------------|
E|-----------------------------------------------------------|

PM...........................................................

e|--------3~ ----------------5~ -----7~ ------------------|
B|-------------3~ ---5~ ----------------------------------|
G|--------------------------------------------------------|
D|--------------------------------------------------------|
A|--------------------------------------------------------|
E|--------------------------------------------------------|
     -------

ORDER
     -------

Intro
Verse
Bridge x2
Verse
Bridge
Chorus x2
Instrumental/solo
Verse
Bridge
Chorus x2 (repeat last line 3 times build up for big finish)

END

+--------------------------------------------------------------------------+

| This file is the author's own work and represents their interpretation |
| of the song. You may only use this file for private study, scholarship, |
| or research. |
+--------------------------------------------------------------------------+


Ultimate-Guitar.Com © 2005

Important: The song above is NOT stored on the Chordie server. The original song is hosted at www.ultimate-guitar.com. Chordie works as a search engine and provides on-the-fly formatting. Chordie does not index songs against artists'/composers' will. To remove this song please click here.

Text color:
Chord color:
Chord grids: 
Font size:    
Page size: 

Bm D D5 E5 Em Em/D G
variations - click chord images

Login - add to songbook

Transpose chords

Tuning

Rating click stars to rate

Layout
Accuracy

SHARE PAGE  




You need to log in to post comments