"yes"; ?> Unforgiven by Creed - guitar chords, guitar tabs and lyrics - chordie

Unforgiven

Creed


X===============================PLEASE NOTE==============================X X This tab is all my own and represents my interpretation of the song. X X You may only use this tab for private study, scholarship, or research. X X Do not change, deface, mutilate, or in any other way alter this tab. X X You must email me first if you want to use this tab on your site. X X========================================================================X
*Unforgiven* Transcribed by Obscured@san.rr.com Http://home.san.rr.com/obscured
Tuning: D A D G B E
INTRO |---------| |---------| |---------| |-----12\-| |-----12\-| |-0-0-12\-| pm...
|--------------------------------------| |--------------------------------------| |--------------------------------------| |-0-----5h6-0-0-------0----5h6-0-3-0-1-| |-0-5h6-----0-0-5h6p5-0-5h6----0-3-0-1-| |-0---------0-0-------0--------0-3-0-1-|
|-----------------------| |-----------------------| |-----------------------| |-0-0-------3-0-0-------| |-0-0-3h4h5---0-0-3h4h5-| |-0-0---------0-0-------|
VERSE |--------------------------| |--------------------------| |--------------------------| |---------------6----------| |-------------5----------5-| |-0-0-0-0-0-0----0-0-0-0---| ........... .......
CHORUS |---------------------------------------| |---------------------------------------| |---------------------------------------| |-3-3-3-3-2-2-2-2-1-1-1-1-0-0-0-0-------| |-3-3-3-3-2-2-2-2-1-1-1-1-0-0-0-0-5h6p5-| |-3-3-3-3-2-2-2-2-1-1-1-1-0-0-0-0-------|
BRIDGE |-------------------| |-------------------| |-------------------| |-0-0-----0-0-------| |-0-0-5h6-0-0-5h6p5-| |-0-0-----0-0-------|
VERSE 2 - Same
CHORUS 2 - Same

BRIDGE 2 - Same
Then play this riff (All 0's are palm muted) |-----------------------------| |-----------------------------| |-----------------------------| |-----------------------------| |-------------------------5p3-| |-0-0-0-0-0-0-0-0-0-0-0-0-----|
|-------------------------| |-------------------------| |-------------------------| |-------------------------| |-----------------5p3-5p3-| |-0-0-0-0-0-0-0-0---------|
|-----------------------------| |-----------------------------| |-----------------------------| |-----------------------------| |-------------------------5p3-| |-0-0-0-0-0-0-0-0-0-0-0-0-----|
|-----------------------------| |-----------------------------| |-----------------------------| |-----------------------------| |-----------------5p3-5p3-5p3-| |-0-0-0-0-0-0-0-0-------------|
|-----------------------------| |-----------------------------| |-----------------------------| |-----------------------------| |-------------------------5p3-| |-0-0-0-0-0-0-0-0-0-0-0-0-----|
|-----------------------------------| |-----------------------------------| |-----------------------------------| |---------------------------------0-| |-----------------5p3-5p3-5p3-5p3-0-| |-0-0-0-0-0-0-0-0-----------------0-|
INTERLUDE |-----------------------------------------| |-----------------------------------------| |-----------------------------------------| |-----------------------------------------| |-----------------------------------------| |-0-0-0-0-0-0-0-0-13-13-13-13-12-12-12-12-| .......................................
|-------------| |-------------| |-------------| |-0-0-0-1-0-1-| |-0-0-0-1-0-1-| |-0-0-0-1-0-1-|
CHORUS 3 - Same
End on BRIDGE riff



















variations - click chord images
Transpose chords:
Tuning:
Cool service:
View: Size:
A  A  A
Rating:
Layout:
  • Currently 0/5 Stars.
  • 1
  • 2
  • 3
  • 4
  • 5
 
Accuracy:
  • Currently 1.8/5 Stars.
  • 1
  • 2
  • 3
  • 4
  • 5
 
click stars to rate
Chordie recommends:
Learn how to play guitar at JamPlay.com
Songbook:
Login to add this song to your songbook
Support the artist
Preview/buy this song
MSN Music
Why this non-profit ad?

 
login to add comments/video/corrections