Guitar Tabs, Chords and Lyrics


Armee Der Verlierer    Die Toten Hosen



Die Toten Hosen - Armee Der Verlierer

[Intro]
E |-----------------------------------------|
H |--------------------------------------0--|
G |---------------------------------1--2----|
D |------------------2----0--2--3-----------|
A |--0----2--3---2--------------------------|
E |-----------------------------------------|

E |-----------------------------------------|
H |-----------------------------------------|
G |----------------------2------------------|
D |--3-2-3-2-3-2-3-2...--2------------------|
A |----------------------0------------------|
E |-----------------------------------------|

[1.Strophe]
1.Gitarre: lässt ausklingen
2.Gitarre: A    C  H (Powerchords, muted)

In den Straßen
läuft die Armee der Verlierer
Der große Direktor
neben dem kleinen Kassierer
Die Anzüge als Uniform
bestimmen die Hierarchie

   1.Gitarre:
   P.M.--------------------------
E |-----------------------------------------|
H |-----------------------------------------|
G |-----------------------------------------|
D |-----------------------------------------|
A |-2-2-3-3-2-2-0-0-0-0-0-0-0-0-0---2--3----|
E |-----------------------------------------|

Das Ende steht schon vor der Tür

E |-----------------------------------------|
H |-----------6-5-6-5-6-5-6-5-6-5-6-5-...---|
G |--------0--------------------------------|
D |--1---2----------------------------------|
A |-----------------------------------------|
E |-----------------------------------------|

bis zur letzten Sekunde kämpfen sie

[Refrain]
     A             C  H
Der Gegner ist die Zeit
Generation um Generation schlägt die Zeit
Die Nächsten warten schon - Zeit
Schlägt sie mit Grausamkeit - Zeit

[Zwischenspiel]
E |-----------------------------8-8--m8-8---|
H |--5--m5-5--m5-5-5--m5-5--m5--8-8--m8-8---|
G |--5--m5-5--m5-5-5--m5-5--m5--------------|
D |-----------------------------------------|
A |-----------------------------------------|
E |-----------------------------------------|

E |--m8-8/5--m4-4--m4-4--5--5-5--7--7-7--8--|
H |--m8-8/5--m4-4--m4-4--5--5-5--7--7-7--8--|
G |-----------------------------------------|
D |-----------------------------------------|
A |-----------------------------------------|
E |-----------------------------------------|

                              2x
E |-8-8-8-9-9-9-9-|-12-12-12-12-12-12-12-12-|
H |-8-8-8-9-9-9-9-|-13-13-12-12-13-13-12-12-|
G |---------------|-------------------------|
D |---------------|-------------------------|
A |---------------|-------------------------|
E |---------------|-------------------------|

[2.Strophe]
Erbärmlich sieht es aus
wie jeder sich abkämpft
und zum Bus rennt
keine Ruhe kennt
und Jahr um Jahr verschenkt
Bis er verliert

[Refrain]
Der Gegner ist die Zeit
Generation um Generation schlägt die Zeit
Die Nächsten warten schon - Zeit
Schlägt sie mit Grausamkeit - Zeit

E |---------------------------|
H |---------------------------|
G |---------------------------|
D |----0-2---0-2---2-3---2-3--|
A |--0-----0-----0-----0------|
E |---------------------------|

Der Gegner ist die Zeit
Generation um Generation schlägt die Zeit
Die Nächsten warten schon - Zeit


Important: The song above is NOT stored on the Chordie server. The original song is hosted at www.xguitar.com. Chordie works as a search engine and provides on-the-fly formatting. Chordie does not index songs against artists'/composers' will. To remove this song please click here.

This song is displayed as text-only. Transposing and tuning is only available for chordpro-songs.

Login - add to songbook

Rating click stars to rate

Layout
Accuracy

SHARE PAGE  




You need to log in to post comments