Guitar Tabs, Chords and Lyrics


Boys And Girls   Good Riddance



----------------------------------------------------------------
Good Riddance - boys & girls
----------------------------------------------------------------

e-|-------------------------------------|
B-|-------------------------------------|
G-|-12-11-9-12-11-9-7---12-11-9-12-11-9-|
D-|-------------------------------------|
A-|-10--9-7-10--9-7-5---10--9-7-10--9-7-|
E-|-------------------------------------|

e-|------------------------------------------------------------------------
B-|------------------------------------------------------------------------
G-|-12-11-9-7-7-9-----------------12-12-12-11-9-11-14-14-14-14-14-14-14-14-
D-|------------------------------------------------------------------------
A-|-10--9-7-5-5-7-8-8-8-8-8-8-8-8-10-10-10--9-7--9-12-12-12-12-12-12-12-12-
E-|---------------6-6-6-6-6-6-6-6------------------------------------------

e-|------------------------------------------------------------------------|
B-|------------------------------------------------------------------------|
G-|-12-11-9-7-7-9-----------------12-12-12-11-9-11-14-14-14-14-14-14-14-14-|
D-|------------------------------------------------------------------------|
A-|-10--9-7-5-5-7-8-8-8-8-8-8-8-8-10-10-10--9-7--9-12-12-12-12-12-12-12-12-|
E-|---------------6-6-6-6-6-6-6-6------------------------------------------|

e-|-----------------------------------------------------------------
B-|-----------------------------------------------------------------
G-|-----------------------------------------------------------------
D-|-----------8-----7-x-x-x-x-7-7-7-----------8-----7-x-x-x-x-7-7-7-
A-|-5-x-x-x-x-6-8-8-5-x-x-x-x-5-5-5-5-x-x-x-x-6-8-8-5-x-x-x-x-5-5-5-
E-|-3-x-x-x-x---6-6-----------------3-x-x-x-x---6-6-----------------

e-|-----------------------------------------------------------------|
B-|-----------------------------------------------------------------|
G-|-----------------------------------------------------------------|
D-|-----------8-----7-x-x-x-x-7-7-7-----------8-----7-x-x-x-x-7-7-7-|
A-|-5-x-x-x-x-6-8-8-5-x-x-x-x-5-5-5-5-x-x-x-x-6-8-8-5-x-x-x-x-5-5-5-|
E-|-3-x-x-x-x---6-6-----------------3-x-x-x-x---6-6-----------------|

e-|------------------------------------------------------------------------
B-|------------------------------------------------------------------------
G-|-12-11-9-7-7-9-----------------12-12-12-11-9-11-14-14-14-14-14-14-14-14-
D-|------------------------------------------------------------------------
A-|-10--9-7-5-5-7-8-8-8-8-8-8-8-8-10-10-10--9-7--9-12-12-12-12-12-12-12-12-
E-|---------------6-6-6-6-6-6-6-6------------------------------------------

e-|------------------------------------------------------------------------|
B-|------------------------------------------------------------------------|
G-|-12-11-9-7-7-9-----------------12-12-12-11-9-11-14-14-14-14-14-14-14-14-|
D-|------------------------------------------------------------------------|
A-|-10--9-7-5-5-7-8-8-8-8-8-8-8-8-10-10-10--9-7--9-12-12-12-12-12-12-12-12-|
E-|---------------6-6-6-6-6-6-6-6------------------------------------------|

e-|-----------------------------------------------------------------
B-|-----------------------------------------------------------------
G-|-----------------------------------------------------------------
D-|-----------8-----7-x-x-x-x-7-7-7-----------8-----7-x-x-x-x-7-7-7-
A-|-5-x-x-x-x-6-8-8-5-x-x-x-x-5-5-5-5-x-x-x-x-6-8-8-5-x-x-x-x-5-5-5-
E-|-3-x-x-x-x---6-6-----------------3-x-x-x-x---6-6-----------------

e-|-----------------------------------------------------------------|
B-|-----------------------------------------------------------------|
G-|-----------------------------------------------------------------|
D-|-----------8-----7-x-x-x-x-7-7-7-----------8-----7-x-x-x-x-7-7-7-|
A-|-5-x-x-x-x-6-8-8-5-x-x-x-x-5-5-5-5-x-x-x-x-6-8-8-5-x-x-x-x-5-5-5-|
E-|-3-x-x-x-x---6-6-----------------3-x-x-x-x---6-6-----------------|

e-|------------------|
B-|------------------|
G-|------------------|
D-|-7-----7--7-----7-|
A-|---8-5----5-8-5-5-|
E-|------------6-3---|

e-|-----------------------------------------------------------------5-5-5-5-
B-|-----------------------------------------6-5-------------8-6-5-6---------
G-|-7-7-9-9-7-7-9-9-7-7-9-9-7-7-9-9-3-7-3-7-----7-7-5-7-5-7-----------------
D-|-------------------------------------------------------------------------
A-|-------------------------------------------------------------------------
E-|-------------------------------------------------------------------------

e-|-----------------------------------------------------------------5-5-5-5-|
B-|-----------------------------------------6-5-------------8-6-5-6---------|
G-|-7-7-9-9-7-7-9-9-7-7-9-9-7-7-9-9-3-7-3-7-----7-7-5-7-5-7-----------------|
D-|-------------------------------------------------------------------------|
A-|-------------------------------------------------------------------------|
E-|-------------------------------------------------------------------------|

e-|-----------------------------------------------------------------
B-|-----------------------------------------------------------------
G-|-----------------------------------------------------------------
D-|-----------8-----7-x-x-x-x-7-7-7-----------8-----7-x-x-x-x-7-7-7-
A-|-5-x-x-x-x-6-8-8-5-x-x-x-x-5-5-5-5-x-x-x-x-6-8-8-5-x-x-x-x-5-5-5-
E-|-3-x-x-x-x---6-6-----------------3-x-x-x-x---6-6-----------------

e-|-----------------------------------------------------------------|
B-|-----------------------------------------------------------------|
G-|-----------------------------------------------------------------|
D-|-----------8-----7-x-x-x-x-7-7-7-----------8-----7-x-x-x-x-7-7-7-|
A-|-5-x-x-x-x-6-8-8-5-x-x-x-x-5-5-5-5-x-x-x-x-6-8-8-5-x-x-x-x-5-5-5-|
E-|-3-x-x-x-x---6-6-----------------3-x-x-x-x---6-6-----------------|

e-|------------------------------------------------------------------------
B-|------------------------------------------------------------------------
G-|-12-11-9-7-7-9-----------------12-12-12-11-9-11-14-14-14-14-14-14-14-14-
D-|------------------------------------------------------------------------
A-|---------------8-8-8-8-8-8-8-8------------------------------------------
E-|------------------------------------------------------------------------

e-|------------------------------------------------------------------------|
B-|------------------------------------------------------------------------|
G-|-12-11-9-7-7-9-----------------12-12-12-11-9-11-14-14-14-14-14-14-14-14-|
D-|------------------------------------------------------------------------|
A-|---------------8-8-8-8-8-8-8-8------------------------------------------|
E-|------------------------------------------------------------------------|

e-|-----------------------------------------------------------------
B-|-----------------------------------------------------------------
G-|-----------------------------------------------------------------
D-|-----------8-----7-x-x-x-x-7-7-7-----------8-----7-x-x-x-x-7-7-7-
A-|-5-x-x-x-x-6-8-8-5-x-x-x-x-5-5-5-5-x-x-x-x-6-8-8-5-x-x-x-x-5-5-5-
E-|-3-x-x-x-x---6-6-----------------3-x-x-x-x---6-6-----------------

e-|-----------------------------------------------------------------|
B-|-----------------------------------------------------------------|
G-|-----------------------------------------------------------------|
D-|-----------8-----7-x-x-x-x-7-7-7-----------8-----7-x-x-x-x-7-7-7-|
A-|-5-x-x-x-x-6-8-8-5-x-x-x-x-5-5-5-5-x-x-x-x-6-8-8-5-x-x-x-x-5-5-5-|
E-|-3-x-x-x-x---6-6-----------------3-x-x-x-x---6-6-----------------|

----------------------------------------------------------------


Important: The song above is NOT stored on the Chordie server. The original song is hosted at www.xguitar.com. Chordie works as a search engine and provides on-the-fly formatting. Chordie does not index songs against artists'/composers' will. To remove this song please click here.

This song is displayed as text-only. Transposing and tuning is only available for chordpro-songs.

Login - add to songbook

Rating click stars to rate

Layout
Accuracy

SHARE PAGE  




You need to log in to post comments