Guitar Tabs, Chords and Lyrics


Mother Superior   Good Riddance



----------------------------------------------------------------
Good Riddance - mother superior
----------------------------------------------------------------

--
e-|-----------------------------------------------------------------
B-|-----------------------------------------------------------------
G-|-----------------------------------------------------------------
D-|-----------------9-9-9-9-9-9-9-9-----------------7-7-7-7-7-7-7-7-
A-|-7-7-7-7-7-7-7-7-7-7-7-7-7-7-7-7-4-4-4-4-4-4-4-4-5-5-5-5-5-5-5-5-
E-|-5-5-5-5-5-5-5-5-----------------2-2-2-2-2-2-2-2-----------------

--
e-|-----------------------------------------------------------------
B-|-----------------------------------------------------------------
G-|-----------------------------------------------------------------
D-|-----------------9-9-9-9-9-9-9-9-----------------7-7-7-7-7-7-7-7-
A-|-7-7-7-7-7-7-7-7-7-7-7-7-7-7-7-7-4-4-4-4-4-4-4-4-5-5-5-5-5-5-5-5-
E-|-5-5-5-5-5-5-5-5-----------------2-2-2-2-2-2-2-2-----------------

--
e-|-----------------------------------------------------------------
B-|-----------------------------------------------------------------
G-|-----------------------------------------------------------------
D-|-----------------9-9-9-9-9-9-9-9-----------------7-7-7-7-7-7-7-7-
A-|-7-7-7-7-7-7-7-7-7-7-7-7-7-7-7-7-4-4-4-4-4-4-4-4-5-5-5-5-5-5-5-5-
E-|-5-5-5-5-5-5-5-5-----------------2-2-2-2-2-2-2-2-----------------

--
e-|-----------------------------------------------------------------
B-|-----------------------------------------------------------------
G-|-----------------------------------------------------------------
D-|-----------------9-9-9-9-9-9-9-9-----------------7-7-7-7-7-7-7-7-
A-|-7-7-7-7-7-7-7-7-7-7-7-7-7-7-7-7-4-4-4-4-4-4-4-4-5-5-5-5-5-5-5-5-
E-|-5-5-5-5-5-5-5-5-----------------2-2-2-2-2-2-2-2-----------------

e-|-----------------------------------|
B-|-----------------------------------|
G-|-----------------------------------|
D-|-7-7-7-7-7-7-7-7-9-9-9-9-9-9-9-9---|
A-|-5-5-5-5-5-5-5-5-7-7-7-7-7-7-7-7---|
E-|-----------------------------------|

e-|---------------------------------------------------------|
B-|---------------------------------------------------------|
G-|---------------------------------------------------------|
D-|---------------------------------14-14-14-14-14-14-14-14-|
A-|-7-7-7-7-7-7-7-7-7-7-7-7-7-7-7-7-12-12-12-12-12-12-12-12-|
E-|-5-5-5-5-5-5-5-5-5-5-5-5-5-5-5-5-------------------------|

e-|-----------------------------------------------------------
B-|-----------------------------------------------------------
G-|-----------------------------------------12-12-11-11-9-9-7-
D-|-----------------9-9-9-9-9-9-9-9-7-x-7-x-------------------
A-|-7-7-7-7-7-7-7-7-7-7-7-7-7-7-7-7-5-x-5-x-10-10--9--9-7-7-5-
E-|-5-5-5-5-5-5-5-5-------------------------------------------

e-|-----------------------------------------------------------
B-|-----------------------------------------------------------
G-|-----------------------------------------12-12-11-11-9-9-7-
D-|---------------------------------7-x-7-x-------------------
A-|-7-7-7-7-7-7-7-7-4-4-4-4-4-4-4-4-5-x-5-x-10-10--9--9-7-7-5-
E-|-5-5-5-5-5-5-5-5-2-2-2-2-2-2-2-2---------------------------

e-|-----------------------------------------------------------
B-|-----------------------------------------------------------
G-|-----------------------------------------12-12-11-11-9-9-7-
D-|-----------------9-9-9-9-9-9-9-9-7-x-7-x-------------------
A-|-7-7-7-7-7-7-7-7-7-7-7-7-7-7-7-7-5-x-5-x-10-10--9--9-7-7-5-
E-|-5-5-5-5-5-5-5-5-------------------------------------------

e-|-----------------------------------------------------------------|
B-|-----------------------------------------------------------------|
G-|-----------------------------------------------------------------|
D-|---------------------------------7-7-7-7-7-7-7-7-7-7-7-7-7-7-7-7-|
A-|-7-7-7-7-7-7-7-7-4-4-4-4-4-4-4-4-5-5-5-5-5-5-5-5-5-5-5-5-5-5-5-5-|
E-|-5-5-5-5-5-5-5-5-2-2-2-2-2-2-2-2---------------------------------|

e-|----------------------------------------------------------------
B-|----------------------------------------------------------------
G-|----------------------------------------------------------------
D-|-------------------------------------------------7-x-7-x-7-6-4--
A-|-7-7-7-7-7-7-7-7-2-2-2-2-2-2-2-2-4-4-4-4-4-4-4-4-5-x-5-x-5-4-2--
E-|-5-5-5-5-5-5-5-5-0-0-0-0-0-0-0-0-2-2-2-2-2-2-2-2----------------

e-|----------------------------------------------------------------|
B-|----------------------------------------------------------------|
G-|----------------------------------------------------------------|
D-|-------------------------------------------------7-x-7-x-7-6-4--|
A-|-7-7-7-7-7-7-7-7-2-2-2-2-2-2-2-2-4-4-4-4-4-4-4-4-5-x-5-x-5-4-2--|
E-|-5-5-5-5-5-5-5-5-0-0-0-0-0-0-0-0-2-2-2-2-2-2-2-2----------------|

e-|-----------------------------------------------------------
B-|-----------------------------------------------------------
G-|-----------------------------------------12-12-11-11-9-9-7-
D-|-----------------9-9-9-9-9-9-9-9-7-x-7-x-------------------
A-|-7-7-7-7-7-7-7-7-7-7-7-7-7-7-7-7-5-x-5-x-10-10--9--9-7-7-5-
E-|-5-5-5-5-5-5-5-5-------------------------------------------

e-|-----------------------------------------------------------
B-|-----------------------------------------------------------
G-|-----------------------------------------12-12-11-11-9-9-7-
D-|---------------------------------7-x-7-x-------------------
A-|-7-7-7-7-7-7-7-7-4-4-4-4-4-4-4-4-5-x-5-x-10-10--9--9-7-7-5-
E-|-5-5-5-5-5-5-5-5-2-2-2-2-2-2-2-2---------------------------

e-|-----------------------------------------------------------
B-|-----------------------------------------------------------
G-|-----------------------------------------12-12-11-11-9-9-7-
D-|-----------------9-9-9-9-9-9-9-9-7-x-7-x-------------------
A-|-7-7-7-7-7-7-7-7-7-7-7-7-7-7-7-7-5-x-5-x-10-10--9--9-7-7-5-
E-|-5-5-5-5-5-5-5-5-------------------------------------------

e-|-----------------------------------------------------------------|
B-|-----------------------------------------------------------------|
G-|-----------------------------------------------------------------|
D-|---------------------------------7-7-7-7-7-7-7-7-7-7-7-7-7-7-7-7-|
A-|-7-7-7-7-7-7-7-7-4-4-4-4-4-4-4-4-5-5-5-5-5-5-5-5-5-5-5-5-5-5-5-5-|
E-|-5-5-5-5-5-5-5-5-2-2-2-2-2-2-2-2---------------------------------|

e-|----------------------------------------------------------------
B-|----------------------------------------------------------------
G-|----------------------------------------------------------------
D-|-------------------------------------------------7-x-7-x-7-6-4--
A-|-7-7-7-7-7-7-7-7-2-2-2-2-2-2-2-2-4-4-4-4-4-4-4-4-5-x-5-x-5-4-2--
E-|-5-5-5-5-5-5-5-5-0-0-0-0-0-0-0-0-2-2-2-2-2-2-2-2----------------

e-|----------------------------------------------------------------|
B-|----------------------------------------------------------------|
G-|----------------------------------------------------------------|
D-|-------------------------------------------------7-x-7-x-7-6-4--|
A-|-7-7-7-7-7-7-7-7-2-2-2-2-2-2-2-2-4-4-4-4-4-4-4-4-5-x-5-x-5-4-2--|
E-|-5-5-5-5-5-5-5-5-0-0-0-0-0-0-0-0-2-2-2-2-2-2-2-2----------------|

e-|--------------------------------------------------------------------------
B-|--------------------------------------------------------------------------
G-|-14-14-14-14-13-13-13-13-11-11-11-11-14-14-13-13--12-12-12-12-11-11-11-11-
D-|--------------------------------------------------------------------------
A-|-12-12-12-12-11-11-11-11--9--9--9--9-12-12-11-11--10-10-10-10--9--9--9--9-
E-|--------------------------------------------------------------------------

e-|-------------------------------------------------------------------
B-|-------------------------------------------------------------------
G-|-9-9-9-9-12-12-11-11-10-10-10-10-9-9-9-9-7-7-7-7-10-10-9-9---------
D-|-----------------------------------------------------------5-5-5-5-
A-|-7-7-7-7-10-10--9--9--8--8--8--8-7-7-7-7-5-5-5-5--8--8-7-7-3-3-3-3-
E-|-------------------------------------------------------------------

e-|-----------------------------------------------------------|
B-|-----------------------------------------------------------|
G-|-----------------------------------------------------------|
D-|-5-5-5-5-5-5-5-5-5-5-5-5-9-9-9-9-9-9-9-9-9-9-9-9-9-9-9-9-9-|
A-|-3-3-3-3-3-3-3-3-3-3-3-3-7-7-7-7-7-7-7-7-7-7-7-7-7-7-7-7-7-|
E-|-----------------------------------------------------------|

e-|-----------------------------------------------------------------|
B-|-----------------------------------------------------------------|
G-|-----------------------------------------------------------------|
D-|---------9-x-x-x-7-x-x-x-4-x-x-x-----------------9-x-x-x-7-7-7-7-|
A-|-7-x-x-x-7-x-x-x-5-x-x-x-2-x-x-x-7-x-x-x-4-x-x-x-7-x-x-x-5-5-5-5-|
E-|-5-x-x-x-------------------------5-x-x-x-2-x-x-x-----------------|

e-|-------------------------------------------------
B-|-------------------------------------------------
G-|-------------------------------------------------
D-|---------------------------------9-9-9-9-7-7-7-7-
A-|-7-7-7-7-7-7-7-7-7-7-7-7-7-7-7-7-7-7-7-7-5-5-5-5-
E-|-5-5-5-5-5-5-5-5-5-5-5-5-5-5-5-5-----------------

e-|-------------------------------------------------------------------|
B-|-------------------------------------------------------------------|
G-|-------------------------------------------------------------------|
D-|---------------------------------9-9-9-9-7-7-7-7-9-9-9-9-7-7-7-7---|
A-|-7-7-7-7-7-7-7-7-7-7-7-7-7-7-7-7-7-7-7-7-5-5-5-5-7-7-7-7-5-5-5-5-7-|
E-|-5-5-5-5-5-5-5-5-5-5-5-5-5-5-5-5---------------------------------5-|

----------------------------------------------------------------


Important: The song above is NOT stored on the Chordie server. The original song is hosted at www.xguitar.com. Chordie works as a search engine and provides on-the-fly formatting. Chordie does not index songs against artists'/composers' will. To remove this song please click here.

This song is displayed as text-only. Transposing and tuning is only available for chordpro-songs.

Login - add to songbook

Rating click stars to rate

Layout
Accuracy

SHARE PAGE  




You need to log in to post comments