Chordie logo


Don't Leave Me   Green Day




Date: Wed, December 30 1998

Group: Green Day
Album: 1039/smoothed out slappy hours
Released: 1990 lookout records
Track: 2
Title: don't leave me
main riff - also played with palm mute

|-----------------------------|
|-----------------------------|
|-------------7-7-7-7---------|
|-9-9-9-7-7-7-7-7-7-7-9-9-9-9-|
|-9-9-9-7-7-7-5-5-5-5-9-9-9-9-|
|-7-7-7-5-5-5---------7-7-7-7-|

chorus

|---------------------------------------|
|---------------------------------------|
|-------------7-----------------4-------|
|-7-7-7-7-7-7---7-7-4-4-4-4-4-4---4-4-4-|
|-7-7-7-7-7-----7-7-4-4-4-4-4-------4-4-|
|-5-5-5-5-5-----5-5-2-2-2-2-2-------2-2-|

lyrics

i'll go for miles 'till i find you
you say you want to leave me but you can't choose
i've gone thru pain everyday and night
i feel my mind is going insane something i can't fight
don't leave me
a blank expression covering your face
i'm looking for directions for out of this place
i start to wonder if you'll come back
i feel the rain storming after thunder i can't hold back


Important: The song above is NOT stored on the Chordie server. The original song is hosted at www.xguitar.com. Chordie works as a search engine and provides on-the-fly formatting. Chordie does not index songs against artists/composers will. To remove this song please click here.

This song is displayed as text-only. Transposing and tuning is only available for chordpro-songs.

Login - add to songbook

Rating click stars to rate

Layout
Accuracy

SHARE PAGE  




You need to log in to post comments