Chordie logo


She's a Rebel   Green Day



This is such an awesome green day song from their latest album american idiot!
 Heres the tab (in order!) â€" if youve got any queries feel free to email me - green_onions28@hotmail.com
 Ive tried my best to put the tab in time as well.
 ********************************************************

 Song is in standard tuning -

 E|-----------------
 B|-----------------
 G|-----------------
 D|-----------------
 A|-----------------
 E|-----------------


 Verse 1:
 |----------------------------------------------------------------
 |------------------------------------------------------0-------0-
 |------------------------------------------------------0-------0-
 |------------------------------------------------7-7-7-0-5-5-5-0-
 |5-5-------------5-5-------------5-5-------------5-5-5---3-3-3---
 |3-3-------------3-3-------------3-3-----------------------------  x2

 Verse 2:
 |----------------------------------------------------------------
 |------0-------0-------0-------0-------0-------0-------0-------0-
 |------0-------0-------0-------0-------0-------0-------0-------0-
 |------0-5---5-0-------0-5---5-0-------0-5---5-0-7---7-0-5---5-0-
 |5---5---3---3---5---5---3---3---5---5---3---3---5---5---3---3---
 |3---3-----------3---3-----------3---3---------------------------  x5

 Chorus:
 |------------------------------------------------------------
 |8---8---8-8-x-------------x-x-------------x-------------x-x-
 |9---9---9-9-x-8--8-8-8--8-x-x-5---5---5-5-x-------------x-x-
 |9---9---9-9-x-9--9-9-9--9-x-x-5---5---5-5-x-------------x-x-
 |7---7---7-7---9--9-9-9--9-----3---3---3-3---5--5-5-5--5-----
 |--------------7--7-7-7--7-------------------3--3-3-3--3-----

 |---------------------------------------------------
 |5---5---5-5-x-3--3-x-8--8-x-x-10--10--1010x-7--7-x-
 |5---5---5-5-x-4--4-x-9--9-x-x-10--10--1010x-7--7-x-
 |5---5---5-5-x-4--4-x-9--9-x-x-10--10--1010x-7--7-x-
 |3---3---3-3---2--2---7--7-----8---8---8-8---5--5---
 |---------------------------------------------------

 Interlude: (comes in very quickly after chorus)
 |--------------------------
 |-------------x------------
 |-------------x------------
 |-------------x--1212------
 |9-9-7-7-1010----10101212--
 |7-7-5-5-8-8---------1010--

 Verse 3:
|Guitar 1   (this is the same as verse 2 only u play it twice)
||----------------------------------------------------------------
||------0-------0-------0-------0-------0-------0-------0-------0-
||------0-------0-------0-------0-------0-------0-------0-------0-
||------0-5---5-0-------0-5---5-0-------0-5---5-0-7---7-0-5---5-0-
||5---5---3---3---5---5---3---3---5---5---3---3---5---5---3---3---
|3---3-----------3---3-----------3---3---------------------------  x2
|
|Guitar 2 (at the same time)
||x-x-3-3-x-x-3-3-x-x-3-3-x-x-3-3-x-x-3-3-x-x-3-3-2---2-2-2-3-5-3-
||x-x-3-3-x-x-3-3-x-x-3-3-x-x-3-3-x-x-3-3-x-x-3-3-3---3-3-3-3-5-3-
||----------------------------------------------------------------
||----------------------------------------------------------------
||----------------------------------------------------------------
||----------------------------------------------------------------  x2

 then play the

 |Chorus

 followed by the

 |Interlude

 and then go back to

 |Verse 1 (x2 as before)

 Verse 5:
 Guitar 1
 |----------------------------------------------------------------
 |------0-------0-------0-------0-------0-------0-------0-------0-
 |------0-------0-------0-------0-------0-------0-------0-------0-
 |------0-5---5-0-------0-5---5-0-------0-5---5-0-7---7-0-5---5-0-
 |5---5---3---3---5---5---3---3---5---5---3---3---5---5---3---3---
 |3---3-----------3---3-----------3---3---------------------------  x2

|Guitar 1 (same as verse 2 but again play it twice)
||----------------------------------------------------------------
||------0-------0-------0-------0-------0-------0-------0-------0-
||------0-------0-------0-------0-------0-------0-------0-------0-
||------0-5---5-0-------0-5---5-0-------0-5---5-0-7---7-0-5---5-0-
||5---5---3---3---5---5---3---3---5---5---3---3---5---5---3---3---
||3---3-----------3---3-----------3---3---------------------------  x2
|
|Guitar 2 (at the same time)
||x-x-3-3-x-x-3-3-x-x-3-3-x-x-3-3-x-x-3-3-x-x-3-3-2---2-2-2-3-5-3-
||x-x-3-3-x-x-3-3-x-x-3-3-x-x-3-3-x-x-3-3-x-x-3-3-3---3-3-3-3-5-3-
||----------------------------------------------------------------
||----------------------------------------------------------------
||----------------------------------------------------------------
||----------------------------------------------------------------  x2

 Ending:
 |----
 |----
 |----
 |----
 |5-5-
 |3-3-



Important: The song above is NOT stored on the Chordie server. The original song is hosted at www.xguitar.com. Chordie works as a search engine and provides on-the-fly formatting. Chordie does not index songs against artists/composers will. To remove this song please click here.

This song is displayed as text-only. Transposing and tuning is only available for chordpro-songs.

Login - add to songbook

Rating click stars to rate

Layout
Accuracy

SHARE PAGE  




You need to log in to post comments