Chordie logo

Bab's Uvula Who?   Green Day




Date: Thurs, July 8 1999

Group: Green Day
Album: Insomniac
Released: 1995 reprise records
Track: 6
Title: bab's uvula who?

: - let ring
intro

|-----------|
|-----------|
|-----------|
|-8--6--3:--|
|-8--6--3:--|
|-6--4--1:--|

verse - also played without a gap between the first 3 chords

|----------------------------|
|----------------------------|
|------------------------8-8-|
|-8-8---8-8---8-8--6-6-6-8-8-|
|-8-8---8-8---8-8--6-6-6-6-6-|
|-6-6---6-6---6-6--4-4-4-----|

chorus

|---------------------------------------------|
|---------------------------------------------|
|---------------------8---------------------8-|
|-8-8-8-8-8-8-8-8-6-6-8-8-8-8-8-8-8-8-8-6-6-8-|
|-8-8-8-8-8-8-8-8-6-6-6-8-8-8-8-8-8-8-8-6-6-6-|
|-6-6-6-6-6-6-6-6-4-4---6-6-6-6-6-6-6-6-4-4---|

|---------------------------------|
|---------------------------------|
|---------------------------------|
|-8-8-8-8-8-8-8-8-6-6-6-6-6-6-3:--|
|-8-8-8-8-8-8-8-8-6-6-6-6-6-6-3:--|
|-6-6-6-6-6-6-6-6-4-4-4-4-4-4-1:--|

lyrics

i've got a knack for fucking everything up
my temper flies and i get myself all wound up
my fuse is short and my blood pressure is high
i lose control and i get myself all wound up
tension mounts and i fly off the wall
i self-destruct and i get myself all wound up
petulance and irritation sets in
i throw a tantrum and l get all wound up 
chip on my shoulder and a leech on my back
stuck in a rut and i get myself all wound up
killed my composure and it will never come back
loss of control and i get myself all wound up
blown out of proportion again
my temper snaps and i get all wound up
spontaneous combustion, panic attack
i slipped a gear and i get myself all wound up


Important: The song above is NOT stored on the Chordie server. The original song is hosted at www.xguitar.com. Chordie works as a search engine and provides on-the-fly formatting. Chordie does not index songs against artists/composers will. To remove this song please click here.

This song is displayed as text-only. Transposing and tuning is only available for chordpro-songs.

Login - add to songbook

Rating click stars to rate

Layout
Accuracy

SHARE PAGE  

You need to log in to post comments