Guitar Tabs, Chords and Lyrics


Price to Play   Staind



I know it may be too early to tabulate this song, but I burnt their new
single, and started playing it in my room... and I know it`s 100% right!
(you can listen to it at staind.com as well)

beggining - main riff (during the main riff, it is muted until you
reach the power chords before the chorus)
B--------------------------------------------------------------------
G--------------------------------------------------------------------
D--------------------------------------------------------------------
A--4-4-4---2---4-4-4--2---4-4---2---4-4-4---2---4-4-4---2---4/5-5-5--
E--4-4-4---2---4-4-4--2---4-4---2---4-4-4---2---4-4-4---2---4/5-5-5--
A--4-4-4---2---4-4-4--2---4-4---2---4-4-4---2---4-4-4---2---4/5-5-5--

power chords before chorus:
B------------------------------------------------
G------------------------------------------------
D------------------------------------------------
A--4--2----4--2----4-2----4--2----4--2----4/5-5--
E--4--2----4--2----4-2----4--2----4--2----4/5-5--
A--4--2----4--2----4-2----4--2----4--2----4/5-5--

(the harmonics before the chorus is something that I do not know
at this moment, but I will keep you posted on that...)

chorus (strum these chords along with the song, you`ll have to
find out the pattern... it`s hard to explain):
B---------------------
G---------------------
D---------------------
A--14---16---18---19--
E--12---14---16---16--
A--12---14---16---16--

bridge (and ending too...):
B-------------------------------
G-------------------------------
D-------------------------------
A--4--4--4-4--4--4-4--4--4-2-2--
E--4--4--4-4--4--4-4--4--4-2-2--
A--4--4--4-4--4--4-4--4--4-2-2--



Important: The song above is NOT stored on the Chordie server. The original song is hosted at www.xguitar.com. Chordie works as a search engine and provides on-the-fly formatting. Chordie does not index songs against artists'/composers' will. To remove this song please click here.

This song is displayed as text-only. Transposing and tuning is only available for chordpro-songs.

Login - add to songbook

Rating click stars to rate

Layout
Accuracy

SHARE PAGE  




You need to log in to post comments