Guitar Tabs, Chords and Lyrics


Suffocate   Staind



				*   STAIND   *
			   
		          '99 RELEASE "DYSFUNCTION"
			    
				  "SUFFOCATE"
	______________________________________________________________________________			    

                    All songs TUNED IN "DROPPED D" THEN HALF STEP DOWN - C# 

	Tabbed by "The Witch/Wookie Boy"       email: staind99@geocities.com

	***Copywritten and all tabbing rights reserved to me, or something***  
	
	~Distinct tone derived from highly overdriven (not high solid state type gain)
	Marshall amp, pushing alot of low-end through the cabinet to acheive warm 
	organic tone - he uses some chords that have fifths added and other minors,
	i can't quite hear all the nuances but this should be enough to get you by...
	______________________________________________________________________________
              
       
		intro (gtr.)
E---------------------------------I
B---------------------------------I
G---------------------------------I PLAY 2x
D-2--2-2--2-2--2-2----------------I
A-2--2-2--2-2--2-2----------------I			 	
D-2--2-2--2-2--2-2----------------I		

     		~Band in~			         
E---------------------------I
B---------------------------I
G---------------------------I REPEAT         
D-2--x--2^3--2-0------------I
A-2--x--2^3--2-0------------I
D-2--x--2^2--2-0------------I               

            *VERSE:
		
		~mostly bass
E----------------------------------I
B----------------------------------I
G----------------------------------I  
D--2^2----2^2----------------------I
A--2^2----2^2----------------------I
D--2-2----2-2----------------------I
        
	*CHORUS:

        	gtr 1 
	p.m.
E----------------------------------I
B----------------------------------I
G----------------------------------I REPEAT
D--5--4----------------------------I
A--3--2---3------------------------I
D--3--2---0------------------------I  
|		gtr 2
E---------------------------I
B---6^5---------------------I
G---------------------------I Repeat 
D---------------------------I
A---------------------------I
D---------------------------I

          	*PRE-VERSE:
E---------------------------------I
B---------------------------------I
G---------------------------------I gtr only
D-2--2-2--2-2--2-2----------------I
A-2--2-2--2-2--2-2----------------I			 	
D-2--2-2--2-2--2-2----------------I		


E------------------------------I
B------------------------------I
G------------------------------I REPEAT         
D-2--x--2^3--0--2-0------------I
A-2--x--2^3--0--2-0------------I
D-2--x--2^2--0--2-0------------I               

	  
	
		BRIDGE:
E---------------|------------------------------I
B---------------|------------------------------I
G---------------|-------3----------------------I 
D--10-\--7------|---2---3-2-x-x-2-0------------I      REPEAT
A---------------|---2---1-2-x-x-2-0------------I     [end on D--2- ]
D--10-\--7------|---2-----2-x-x-2-0------------I
	    
		*OUTRO:
E------------------------------I
B------------------------------I
G------------------------------I REPEAT         
D-2--x--2^3--0--2-0------------I
A-2--x--2^3--0--2-0------------I
D-2--x--2^2--0--2-0------------I               

	
http://listen.to/further 					SUFFOCATE____~FINE



Important: The song above is NOT stored on the Chordie server. The original song is hosted at www.xguitar.com. Chordie works as a search engine and provides on-the-fly formatting. Chordie does not index songs against artists'/composers' will. To remove this song please click here.

This song is displayed as text-only. Transposing and tuning is only available for chordpro-songs.

Login - add to songbook

Rating click stars to rate

Layout
Accuracy

SHARE PAGE  




You need to log in to post comments