Guitar Tabs, Chords and Lyrics
Major upgrade!! After one year development the new version of Chordie is now online! Please give feedback.


Took My Place  Third Day

by Third Day
Album: Time
(c)1999 New Spring Publishing/Vandura 2500 Songs/gray dot songs/ASCAP
Submitted by Cody Pitre, cpitre@intop.net
 
 ------------------------------------------------------------------

(power chords in song)
G/A x057xx
D/F# x047xx
Intro:
[A]  
 
 e----------------------
 b----------------------
 g-2-h4-5-4-2----------- Repeat 4x
 d-2----------5h7-4-5p4-
 A-0----------0---------
 E---------------------- 

[A] [G/A] [D/F#]  
[A] [G/A] [D/F#]  
[A] [G/A] [D/F#]  
[A] [G/A] [D/F#]  
Chorus
[G] [D] [A]  
[G] [D] [A]  
[D] [G] [A] (int[E]ro riff[G])
Verse 2(same as verse 1)
Solo:(Chord progression: Bb F C G Bb F C)(*Not exact, the best I could do*)
 
 e-------3--6p3--- -------------- ---------- --------3--6p3---- -/15----
 b--6-5-b6------6- ----5-5---5--- ---------- -6-5-3-b6------6-- --------
 g---------------- -/5-----5---7- -3p0--3p0- ------------------ --------
 d---------------- -------------- ---------- ------------------ --------
 A---------------- -------------- ---------- ------------------ --------
 E---------------- -------------- ---------- ------------------ --------

(I don't know the rest, email me if you figure it out)
repeat verse 1
repeat chorus
=========================================================================
Took My Place
Third Day
chord progression through intro
 
 e -----------------------------------------------------------------------
 b -----------------------------------------------------------------------
 g -----------------------------------------------------------------------
 d ---7-7-7-9b-7-5-5-7-4--------------------------------------------------
 a ---0-0-0-0--0-0-0-0-0--------------------------------------------------
 E ----------------------------------------------------------------------- 


Important: The song above is NOT stored on the Chordie server. The original song is hosted at www.christianguitar.org. Chordie works as a search engine and provides on-the-fly formatting. Chordie does not index songs against artists'/composers' will. To remove this song please click here.

Text color:
Chord color:
Chord grids: 
Font size:    
Page size: 

A D D/F# E G
Rate #1 of 2 versions

Jango Player

Login - add to songbook

SHARE PAGE  



You need to log in to post comments