Guitar Tabs, Chords and Lyrics
Major upgrade!! After one year development the new version of Chordie is now online! Please give feedback.


Whose Fist Is This Anyway?   Prong

 
 1------------------------------------------------
 2------------------------------------------------
 3------------------------------------------------
 4---------------------------------------------1--
 5-3h5------3h5------3h5------3h5------3h5-----1--
 6------0-0------0-0------0-0------0-0-----0-0-1--

 


 


 [m] [m] [m] [m] [m] [m] [m] [m] [m] [m] 


 

 
 1------------------------------------------------------
 2------------------------------------------------------
 3------------------------------------------------------
 4-------------------------------------2/(3)-----2/(3)--
 5-3h5------3h5------3h5------3h5--0-0-2/(3)-0-0-2/(3)--
 6------0-0------0-0------0-0------0-0-2/(3)-0-0-2/(3)-- 2X3

 


 


 ~


 

 
 1----------------------------------------------------------------
 2-----------------------------------------------------3----------
 3-----------------------------------------------------2----------
 4-5/(7)----------5--7--7---5/(7)---------5--7--7------0----------
 5-3/(5)----------3--5--5---3/(5)---------3--5--5------0----------
 6-0------0-0-0-0-0--0--0---0-----0-0-0-0-0--0--0--0-0-0-----0-3--
 1----------------------------------------------------------------
 2-----------------------------------------------------3----------
 3-----------------------------------------------------2-----0----
 4-5/(7)----------5--7--7---5/(7)---------5--7--7------0----------
 5-3/(5)----------3--5--5---3/(5)---------3--5--5------0----------
 6-0------0-0-0-0-0--0--0---0-----0-0-0-0-0--0--0--0-0-0----------

 


 


 verse


 


 [m] [m] [m] [m] [m] 


 

 
 1-----------------------------------------------------------------
 2-----------------------------------------------------------------
 3-----------------------------------------------------------------
 4-0--2---0--2---0--2--/---------------0--2---0--2---0--2---3-3-3--
 5-0--2---0--2---0--2--/-%-------------0--2---0--2---0--2---3-3-3--
 6-0--2---0--2---0--2--/---0--0-0-15\\--0--2---0--2---0--2---3-3-3--

 


 


 [m] [m] [m] [m] 


 

 
 1-----------------------------------------------------------------
 2-----------------------------------------------------------------
 3-----------------------------------------------------------------
 4-0--2---0--2---0--2--/---------------0--2---0--2---0--2---3---3--
 5-0--2---0--2---0--2--/-%-------------0--2---0--2---0--2---3-%-3--
 6-0--2---0--2---0--2--/---0--0-0-15\\--0--2---0--2---0--2---3---3--

 


 


 [m] [m] [m] [m] [m] 


 

 
 1-----------------------------------------------------------------
 2-----------------------------------------------------------------
 3-----------------------------------------------------------------
 4-0--2---0--2---0--2--/---------------0--2---0--2---0--2---3-3-3--
 5-0--2---0--2---0--2--/-%-------------0--2---0--2---0--2---3-3-3--
 6-0--2---0--2---0--2--/---0--0-0-15\\--0--2---0--2---0--2---3-3-3--

 


 


 m m m *


 

 
 1-------------------------------------------------------------
 2-------------------------------------------------------------
 3-------------------------------------------------------------
 4-0--2---0--2---0--2--/---------------0--2---0--2---0--2---3--
 5-0--2---0--2---0--2--/-%-------------0--2---0--2---0--2---3--
 6-0--2---0--2---0--2--/---0--0-0-15\\--0--2---0--2---0--2---3--

 


 


 chorus


 


 ~


 

 
 1----------------------------------------------------------------
 2-----------------------------------------------------3----------
 3-----------------------------------------------------2----------
 4-5/(7)----------5--7--7---5/(7)---------5--7--7------0----------
 5-3/(5)----------3--5--5---3/(5)---------3--5--5------0----------
 6-0------0-0-0-0-0--0--0---0-----0-0-0-0-0--0--0--0-0-0-----0-3--
 1----------------------------------------------------------------
 2-----------------------------------------------------3----------
 3-----------------------------------------------------2-----0----
 4-5/(7)----------5--7--7---5/(7)---------5--7--7------0----------
 5-3/(5)----------3--5--5---3/(5)---------3--5--5------0----------
 6-0------0-0-0-0-0--0--0---0-----0-0-0-0-0--0--0--0-0-0----------

 


 


 ~


 

 
 1----------------------------------------------------------------
 2-----------------------------------------------------3----------
 3-----------------------------------------------------2----------
 4-5/(7)----------5--7--7---5/(7)---------5--7--7------0----------
 5-3/(5)----------3--5--5---3/(5)---------3--5--5------0----------
 6-0------0-0-0-0-0--0--0---0-----0-0-0-0-0--0--0--0-0-0-----0-3--

 


 


 [m] [m] [m] [m] [m] [m] [m] [m] [m] [m] 


 

 
 1------------------------------------------------
 2------------------------------------------------
 3------------------------------------------------
 4---------------------------------------------1--
 5-3h5------3h5------3h5------3h5------3h5-----1--
 6------0-0------0-0------0-0------0-0-----0-0-1--

 


 


 [m] [m] [m] [m] [m] [m] [m] [m] [m] [m] 


 

 
 1------------------------------------------------------
 2------------------------------------------------------
 3------------------------------------------------------
 4-------------------------------------2/(3)-----2/(3)--
 5-3h5------3h5------3h5------3h5--0-0-2/(3)-0-0-2/(3)--
 6------0-0------0-0------0-0------0-0-2/(3)-0-0-2/(3)-- 2X1

 


 


 2nd verse


 


 [m] [m] [m] [m] [m] 


 

 
 1-----------------------------------------------------------------
 2-----------------------------------------------------------------
 3-----------------------------------------------------------------
 4-0--2---0--2---0--2--/---------------0--2---0--2---0--2---3-3-3--
 5-0--2---0--2---0--2--/-%-------------0--2---0--2---0--2---3-3-3--
 6-0--2---0--2---0--2--/---0--0-0-15\\--0--2---0--2---0--2---3-3-3--

 


 


 [m] [m] [m] [m] [m] [m] [m] 


 

 
 1------------------------------------------------------------------------
 2------------------------------------------------------------------------
 3------------------------------------------------------------------------
 4-0--2---0--2---0--2--/---------------0--2---0--2---0--2---0-0-3--0-0-3--
 5-0--2---0--2---0--2--/-%-------------0--2---0--2---0--2---0-0-3--0-0-3--
 6-0--2---0--2---0--2--/---0--0-0-15\\--0--2---0--2---0--2---0-0-3--0-0-3--

 


 


 [m] [m] [m] [m] [m] 


 

 
 1-----------------------------------------------------------------
 2-----------------------------------------------------------------
 3-----------------------------------------------------------------
 4-0--2---0--2---0--2--/---------------0--2---0--2---0--2---3-3-3--
 5-0--2---0--2---0--2--/-%-------------0--2---0--2---0--2---3-3-3--
 6-0--2---0--2---0--2--/---0--0-0-15\\--0--2---0--2---0--2---3-3-3--

 


 


 m m m *


 

 
 1-------------------------------------------------------------
 2-------------------------------------------------------------
 3-------------------------------------------------------------
 4-0--2---0--2---0--2--/---------------0--2---0--2---0--2---3--
 5-0--2---0--2---0--2--/-%-------------0--2---0--2---0--2---3--
 6-0--2---0--2---0--2--/---0--0-0-15\\--0--2---0--2---0--2---3--

 


 


 solo rhythm


 


 [m] [m] [m] [m] [m] [m] [m] [m]  


 

 
 1-----------------------------------------------
 2-----------------------------------------------
 3-----------------------------------------------
 4-3p0----------3p0--0---3p0----------3p0-3/(5)--
 5-3p0----------3p0--0---3p0----------3p0-3/(5)--
 6-3p0--0-0-0-0-3p0--0---3p0--0-0-0-0-3p0-3/(5)-- 1X3

 


 


 [m] [m] [m] [m] [m] [m] [m] [m]  


 

 
 1--------------------------------------------
 2--------------------------------------------
 3--------------------------------------------
 4-0h2----------0h2--2---0h2----------0h2--3--
 5-0h2--2-2-2-2-0h2--2---0h2--2-2-2-2-0h2--3--
 6-0h2--2-2-2-2-0h2--2---0h2--2-2-2-2-0h2--3-- 1X3

 


 


 slide solo


 


 

 
 1--------------------------------------------
 2-------10--------------10-------------------
 3-/10------10-----/10------10-----/7---------
 4----------------------------------------/5--
 5--------------------------------------------
 6--------------------------------------------
 1---------------------------------------------
 2-------10--------------10--------------------
 3-/10------10-----/10------10-----/7----------
 4----------------------------------------/19--
 5---------------------------------------------
 6---------------------------------------------
 1----------------------------------------------------------
 2------9------------9-------10\\9-10\\9----10\\9----10--------
 3-/9-----9-----/9-----9---9------------9-------9------7/9--
 4----------------------------------------------------------
 5----------------------------------------------------------
 6----------------------------------------------------------
 1------------------------------------------------------------------
 2------9------------9-------10\\9-10\\9----10\\9----10---10/12--------
 3-/9-----9-----/9-----9---9------------9-------9-------------------
 4-------------------------------------------------------------12\\--
 5-------------------------------------------------------------12\\--
 6-------------------------------------------------------------12\\--

 


 


 2nd chorus


 


 

 
 1-------------------------------------------------------
 2-------------------------------------------------------
 3-------------------------------------------------------
 4-5/(7)----------5--7--7---5/(7)---------5--7--7--------
 5-3/(5)----------3--5--5---3/(5)---------3--5--5--------
 6-0------0-0-0-0-0--0--0---0-----0-0-0-0-0--0--0--/\\-%--

 


 


 [m] [m] [m] [m] [m] [m] [m] [m] [m] [m] [m] [m] 


 

 
 1-------------------------------------------------------------
 2-------------------------------------------------------------
 3-------------------------------------------------------------
 4---------------------------------------------1---------------
 5-3h5------3h5------3h5------3h5------3h5-----1---------------
 6------0-0------0-0------0-0------0-0-----0-0-1--/\\-%-0-0-/\\--

 


 


 outro - listen for the slide fills


 


 

 
 1-------------------------------------------
 2-------------------------------------------
 3-------------------------------------------
 4-5-5-7---5-5-7---5-5-7---5-5-7--5-5-5---6--
 5-3-3-5---3-3-5---3-3-5---3-3-5--3-3-3---4--
 6-------------------------------------------
 1----------------------------------------
 2----------------------------------------
 3----------------------------------------
 4-5-5-7---5-5-7---5-5-7---5-5-7---5---6--
 5-3-3-5---3-3-5---3-3-5---3-3-5---3---4--
 6----------------------------------------

 


 


 ~ ~


 ph ph


 

 
 1---------------------------------------
 2---------------------------------------
 3---------------------------------------
 4-5-5-7---5-5-7---5-5-7-----------------
 5-3-3-5---3-3-5---3-3-5---0--3h5--3--3--
 6--------------------------------------- 2X2

 


 


 ~


 m m m m ph m m m m m m m


 

 
 1------------------------------------------------
 2------------------------------------------------
 3------------------------------------------------
 4-6--------5-------------------------------3--5--
 5-6--------5-------------------------------3--5--
 6-6--0--0--5--0--0--3---0--0--0-0-0--0--0--3--5--

 


 


 ~


 m m m m ph m m m m m m m m m m


 

 
 1-------------------------------------------------
 2-------------------------------------------------
 3-------------------------------------------------
 4-6--------5--------------------------------------
 5-6--------5--------------------------------------
 6-6--0--0--5--0--0--3---0--0--0-0-0--0--0--0-0-0-- 2X11

 


 


 ~


 m m m m ph m m m m m m m


 

 
 1------------------------------------------------
 2------------------------------------------------
 3------------------------------------------------
 4-6--------5-------------------------------3--5--
 5-6--------5-------------------------------3--5--
 6-6--0--0--5--0--0--3---0--0--0-0-0--0--0--3--5--

 


 


 [m] [m] [m] [m]  


 

 
 1----------------------------
 2----------------------------
 3----------------------------
 4-6--------5--------3---0----
 5-6--------5--------3---0-%--
 6-6--0--0--5--0--0--3---0----


Important: The song above is NOT stored on the Chordie server. The original song is hosted at www.xguitar.com. Chordie works as a search engine and provides on-the-fly formatting. Chordie does not index songs against artists'/composers' will. To remove this song please click here.

This song is displayed as text-only. Transposing and tuning is only available for chordpro-songs.
Rate #1 of 2 versions

Login - add to songbook

SHARE PAGE  




You need to log in to post comments