Guitar Tabs, Chords and Lyrics
Major upgrade!! After one year development the new version of Chordie is now online! Please give feedback.


Get It On   Turboneger

 
 e |------|
 B |------|
 G |------|
 D |------|

 


 A |-1s9--|


 

 
 E |------|

 


 


 main riff


 


 

 
 e |-------------------|
 B |---------------6---|
 G |-99999---55555-5---|
 D |-99999-7-55555-3---|
 A |-77777-7-33333-----|
 E |-------5-----------|

 


 


 second guitar pickscrapes


 


 

 
 e |-------|
 B |-------|
 G |-------|

 


 D |-2-5-7-|


 A |-2-5-7-|


 

 
 E |-0-----|

 


 


 main riff variation - second guitar


 


 play what sounds right to you


 


 [1] [2]  

 
 e |----------------------|e |----------------------|
 B |----------------------|B |----------------------|
 G |-9999s12-12-55555-10--|G |----------------------|
 D |----------------------|D |--------555-----------|
 A |----------------------|A |-3s77777---333338s1---|
 E |----------------------|E |--------------------0-|

 


 


 first guitar


 


 small lead part - second guitar |played many times |


 | extremely fast |


 

 
 e |-12-12-------12-12-------12-12-------12-12-------|-12h15p12---------|
 B |-------15b17-------15b17-------15b17-------15b17-|---------12h15p12-|
 G |-------------------------------------------------|------------------|
 D |-------------------------------------------------|------------------|
 A |-------------------------------------------------|------------------|
 E |-------------------------------------------------|------------------|

 


 


 end with


 


 

 
 e |--------------------|

 


 B |-12b12b12b12b--8-10-|


 

 
 G |---------------7-9--|
 D |--------------------|
 A |--------------------|
 E |--------------------|

 


 


 "and i like it, love it"


 


 

 
 e |-------|
 B |-------|
 G |-------|

 


 D |-2-5-7-|


 A |-2-5-7-|


 

 
 E |-0-----|

 


 


 chorus


 


 

 
 e |----------------------------------|
 B |----------------------------------|

 


 G |-55555555777777779999999999999999-|


 D |-55555555777777779999999999999999-|


 A |-33333333555555557777777777777777-|


 

 
 E |----------------------------------|
 e |-------------------|
 B |-------------------|
 G |-------------------|
 D |-------------------|

 


 A |-7777771010777777s-|


 

 
 E |-------------------|
 e |-12-12-------12-12-------12-12-------12-12-------|
 B |-------15b17-------15b17-------15b17-------15b17-|
 G |-------------------------------------------------|
 D |-------------------------------------------------|
 A |-------------------------------------------------|
 E |-------------------------------------------------|
 e |----------------------------------|
 B |----------------------------------|

 


 G |-55555555777777779999999999999999-|


 D |-55555555777777779999999999999999-|


 A |-33333333555555557777777777777777-|


 

 
 E |----------------------------------|
 e |----------------------|
 B |----------------------|
 G |----------------------|
 D |----------------------|

 


 A |-7777771010777777-7b8-|


 

 
 E |----------------------|
 e |----------------12-|
 B |----------10-88----|
 G |-9999977-7-----9---|
 D |--------9----------|
 A |-------------------|
 E |-------------------|
 e |----------------------------------|
 B |----------------------------------|

 


 G |-55555555777777779999999999999999-|


 D |-55555555777777779999999999999999-|


 A |-33333333555555557777777777777777-|


 

 
 E |----------------------------------|
 e|-12h15p12---------| played many times
 B|---------12h15p12-|
 G|------------------|
 D|------------------|
 A|------------------|
 E|------------------|

 


 


 e|-12b12b12b12b15b15b17b17b-|


 

 
 B|--------------------------|
 G|--------------------------|
 D|--------------------------|
 A|--------------------------|
 E|--------------------------|

 


 


 2 verse


 


 

 
 e |-------------------|
 B |---------------6---|
 G |-99999---55555-5---|
 D |-99999-7-55555-3---|
 A |-77777-7-33333-----|
 E |-------5-----------|
 e|-------------------------|
 B|-------------------------|
 G|-------------------------|
 D|----5555577799999-12-5-7-|
 A|-777-----------------5-7-|
 E|-------------------------|
 e|-10b1212-|-1616-|-14b1616-|
 B|---------|------|---------|
 G|---------|------|---------|
 D|---------|------|---------|
 A|---------|------|---------|
 E|---x8----|------|---x3----|

 


 


 chorus


 


 

 
 e |-12-12-------12-12-------12-12-------12-12--------------|
 B |-------15b17-------15b17-------15b17-------15b17--------|
 G |-------------------------------------------------13b16--|
 D |--------------------------------------------------------|
 A |--------------------------------------------------------|
 E |--------------------------------------------------------|
 e |-------------------------|
 B |-------------------------|
 G |------------------9b10b9-|
 D |-------------------------|
 A |-7777771010999999--------|
 E |-------------------------|
 e|-----------------------------------------|
 B|---------------------------8881010101010-|
 G|------------------77799999---------------|
 D|----5555577799999------------------------|
 A|-777-------------------------------------|
 E|-----------------------------------------|


Important: The song above is NOT stored on the Chordie server. The original song is hosted at www.xguitar.com. Chordie works as a search engine and provides on-the-fly formatting. Chordie does not index songs against artists'/composers' will. To remove this song please click here.

This song is displayed as text-only. Transposing and tuning is only available for chordpro-songs.
Rate #1 of 1 versions

Jango Player

Login - add to songbook

SHARE PAGE  




You need to log in to post comments