eToCache5 = ""; ?> Weather Report Suite by Grateful Dead - guitar chords, guitar tabs and lyrics - chordie

Weather Report Suite

Grateful Dead

E------7--------5-------------------------------------------|

B------7h8p7-------7---5---3---5---7---3--------------------|
G------------9--5-------------------------------------------|
D------------------7---5---4---5---7---4--------------------|
A-----------------------------------------------------------|
E-(7)-------------------------------------------------------|
E-------------------------------------------7--7--7-----7----|
B-------------------------------------------8--8--8-----8----|
G------5--4--5--7--7------------------9-----9--9--9-----9----|
D---7--------------9------9--7--9-----9----------------------|
A------7--5--7--9------7--------------7--7-----------7-------|
E------------------7------7--5--7--7-------------------------|

 CGAmGBmAmEm
E--------------------------0--------------------3---2--0--0-|
B------1---------3-----1---1------1p0--1--0--1--0---3--1--0-|
G------------0------0------2---2-------2--0--2--0---4--2--0-|
D---------2----------------2--------------------0---4--2--2-|
A--7---3---------2---------0--------------------2---2--0--2-|
E-----------------------------------------------3---------0-|


 FEmGCG
E-------------------1----------------0---------3----0---3---|
B-------------------1----------------0---------0----1---0---|
G------0-4p2-0------2--2p0--2--0--2--0---------0----0---0---|
D--2^4---------4-3--3----------------2---------0----2---0---|
A-------------------3----------------2---------2----3---2---|
E-------------------1----------------0---0--2--3----3---3---|


 DmEm
E---3-3-3-3p2---0-1--1-1-1-1p0------0-------------------0---|
B-------------3---3------------1-3-----1-----1----------0---|
G-----------------2-----------------------2-----4-2---4-0---|
D-----------------0---------------------------------1---2---|
A-------------------------------------------------------2---|
E-------------------------------------------------------0---|

 F#mAE
E---------------2--------------------0----------4-----------|
B----3-2--------2--2h3--5--2--2h3p2--2--2h3--5--5-----------|
G--4-----4---4--2--------------------2----------4-----------|
D----------3----4--------------------2----------6-----------|
A---------------4--------------------0----------7-----------|
E---------------2-------------------------------4-----------|


 AEAEEAEA
E----------5--0----------5--0----0--0---------0--0----------|
B--2h3--5--5--0--2h3--5--5--0----0--2---------0--2----------|
G----------6--1----------6--1----1--2--2p1-2--1--2--2p1-2---|
D----------7--2----------7--2----2--2---------2--2----------|
A----------7--2----------7--2----2--0---------2--0----------|
E----------5--0----------5--0----0--0---------0--0----------|


 EC#m
Winter rain, now tell me why,
 DDsus4D
Summers fade, and roses die.        
 C#m7F#mAEAE
The answer came; The wind and rain.                   

Golden hills, now veiled in grey,
Summer leaves have blown away
Now what remains? The wind and rain.

 E7C#
 And like a desert spring,
 AG
 My lover comes and spreads her wings,
 DG
 Knowing, like a song that's born to soar the sky,
 DG
 Flowing, flowing 'til the waters all are dry,
 DCEAEA
 Growing, the loving in her eyes.                    

Circle songs and sands of time,
Seasons will end in tumbled rhyme,
And little change, the wind and rain.

And like a desert spring,
My lover comes and spreads her wings,
Knowing, Like a song that's born to soar the sky,
Flowing, Flowing 'til the rivers all are dry,
Growing, the loving in her eyes.

 BE
 Winter gray and falling rain,
 BE
 We'll see summer come again,
 BE
 Darkness falls and seasons change
(gonna happen every time).
 BE
 Same old friends the wind and rain,
(we'll see summer by and by)
 BE
 Winter gray and falling rain,
(summers fadeand roses die)
 BE
 We'll see summer come again,
 ADCE
Like a song that's born to soar the sky.</xmp>            


A Am B Bm C C# C#m C#m7 D Dm Dsus4 E E7 Em F F#m G
variations - click chord images
Transpose chords:
Tuning:
Cool service:
View: Size:
A  A  A
Rating:
Layout:
  • Currently 5/5 Stars.
  • 1
  • 2
  • 3
  • 4
  • 5
 
Accuracy:
  • Currently 3.5/5 Stars.
  • 1
  • 2
  • 3
  • 4
  • 5
 
click stars to rate
Chordie recommends:
Learn to play guitar with video-based, online guitar lessons at JamPlay.com
Songbook:
Login to add this song to your songbook
Support the artist
Preview/buy this song
MSN Music
Why this non-profit ad?

 
login to add comments/video/corrections