Guitar Tabs, Chords and Lyrics


Tra Palco E Realta  Ligabue

---------15--------------15--------------14--------------14---------|


-----17------17------17------17------17------17------17------17-----|


-14--------------14--------------14--------------14-----------------|

--------------------------------------------------------------------|
--------------------------------------------------------------------|
--------------------------------------------------------------------|
---------15--------------15--------------15--------------15---------|
-----17------17------17------17------17------17------17------17-----|
-14--------------14--------------14--------------14-----------------|
--------------------------------------------------------------------|
--------------------------------------------------------------------|
--------------------------------------------------------------------|
----------------------------------------------------------------------|
----------------------------------------------------------------------|
----7--5p4--------7--5p4-----4--7--5p4--------4--4--4--5--5--5--4-----|
-5----------7--5----------7-------------7--5--------------------------|
----------------------------------------------------------------------|
----------------------------------------------------------------------|
e:-----------|
B:-----------|
D:-----------|
A:-----------|
E:-----------|
[C]Abbiamo [G]facce che non cono[Am7]sciamo
ce le met[G]tete voi in faccia pian [C]piano
e abbiamo [G]fame di quella [Am7]fame
che il vostro [G]urlo ci regale[C]ra'
E abbiamo l[G]'aria di chi vive a[Am7] caso
l'aria di [G]quelli che paghi a [C]peso
e abbiamo [G]scuse che anche se [Am7]buone
non c'e' nes[G]suno che le ascolte[C7+]ra'
(NOTA: nella parte seguente e' meglio suonare il LAm7 cosi':
Am7 002213
facendo la 7.a sul cantino col mignolo, in modo da tenere nell'accordo
il la sulla terza corda che fa parte del cantato.
In alternativa potete suonare in semplice A)


[C]E poi ab[C9]biamo gia' chi ci por[G]ta
fino alla [Am7]prossima cit[G]ta'
ci mette da[C9]vanti a un altro mi[G]crofono
che qualche [Am7]cosa succede[G]ra'
Siam quelli [D]la'
Siam quel[D4]li [D]la'
Siam quelli [Am]la'
[C]Quelli tra [D]palco e real[G]ta'
ta ta rara[A7/4]ra
ta ta rara[G]ra
ta ta rarara
[C9]Quelli tra [C]palco e real[G]ta'
ta ta rara[A7/4]ra
ta ta rara[G]ra
ta ta rarara [C]

[C]Abbiamo a[G]mici che neanche sap[Am7]piamo
che finche' va [G]bene ci leccano il [C]culo
e poi ab[G]biamo casse di [Am7]Maalox
per petti[G]narci lo stoma[C]co.

Abbiamo [G]soldi da giustifi[Am7]care
e compli[G]menti per la trasmis[C]sione
e abbiamo un [G]ego da far ve[Am7]dere
a uno [G]bravo davvero un bel [C7+]po'
[C]E poi ab[C9]biamo chi ci da' il [G]voto
ci vuol spie[Am7]gare come si [G]fa:
*e' come[C9] prima? No si e' mon[G]tato*
ognuno [Am7]sceglie la tua veri[G]ta'
Siam quelli [D]la'
Siam quel[D4]li [D]la'
Siam quelli [Am]la'
[C]Quelli tra [D]palco e real[G]ta'
ta ta rara[A7/4]ra
ta ta rara[G]ra
ta ta rarara
[C9]Quelli tra [C]palco e real[G]ta'
ta ta rara[A7/4]ra
ta ta rara[G]ra

ta ta rarara

(Ancora grazie a THE SUN per la TAB)
----------------------------------------|
----------------------------------------|
----------------------------------------|
-----0----------------------------------|
--2-----2--0----------------------------|
---------------3--0---------------------|

b (bending)

[Em7]E c'e' chi [D]non si sbaglia [C9]mai:
ti [G]guarda e [D]sa chi [Em7]sei.
E c'e' chi [D]non controlla [C9]mai
[G]dietro la [D]foto.

[Em7]E c'e' chi [D]non ha avuto [C9]mai
nem[G]meno un [D]dubbio [C9]mai,
nem[G]meno un [D]dubbio [A9]mai
Solo: C9 G Am7 G C9 G Am7 G D

(TAB di Alessandro Marini)

(Solo 1)DO SOL/SI LAm SOL/SI DO SOL
e:------------------|------------------|-----------------|-------------|
B:------------------|------------------|-----------------|-------------|
G:------------------|------------------|-----------------|-------------|
D:-5-----------5----|-5-----------5----|-5-----4-4~-----2|-2--0--------|
A:---------5^7---5^7|---------5^7---5^7|-----------------|-------------|
E:------------------|------------------|-----------------|-------3--5--|

1 2 3 . 4 . 1 2 3 . 4 . 1 . 2 . 3 . 4 . 1 2 3 4

DO SOL/SI LAm SOL RE
e:-----------------|--------------|-----------------|---------|---------|
B:-----------------|--------------|-----------------|---------|---------|
G:---------------4-|--------------|-----------------|---------|---------|
D:-----0-2--/5-----|-5~-----------|-----5-5-------5-|-4~------|/7~------|
A:-2^3-------------|------------5-|-5-7-------5-7---|---------|---------|
E:-----------------|--------------|-----------------|---------|---------|

1 . 2 . 3 . 4 . 1 2 3 4 . 1 . 2 . 3 . 4 . 1 2 3 4 1 2 3 4 4

si ripete l'intro: A5 G C9

Abbiamo an[G]date e ritorni vio[Am7]lenti:
o troppo ac[G]cesi o troppo [C]spenti.
E non ab[G]biamo chi ci fa [Am7]sconti
che quando e' [G]ora si salute[C7+]ra'.

[C]E ce l'ab[C9]biamo qualche spe[G]ranza
forse qual[Am7]cuno ci ricorde[G]ra'
e non sola[C9]mente per le can[G]zoni
per le pa[Am7]role o la musi[G]ca
Siam quelli [D]la'
Siam quel[D4]li [D]la'
Siam quelli [Am]la'
[C]Quelli tra [D]palco e real[G]ta'
ta ta rara[A7/4]ra
ta ta rara[G]ra
ta ta rarara
[C9]Quelli tra [C]palco e real[G]ta'
ta ta rara[A7/4]ra
ta ta rarar[G]a

ta ta rarara
[C]Quelli tra [D]palco e real[C9]ta'
ta ta rara[G]ra
ta ta rara[Am7]ra

ta ta rarara
[G]Quelli tra palco e real[C9]ta'  [G]   [Am7]     [G]

Important: The song above is NOT stored on the Chordie server. The original song is hosted at www.guitaretab.com. Chordie works as a search engine and provides on-the-fly formatting. Chordie does not index songs against artists'/composers' will. To remove this song please click here.

Text color:
Chord color:
Chord grids: 
Font size:    
Page size: 

A7/4 A9 Am Am7 C C7+ C9 D D4 Em7 G
variations - click chord images

Login - add to songbook

Transpose chords

Tuning

Rating click stars to rate

Layout
Accuracy

SHARE PAGE  




You need to log in to post comments