Chordie logo


Medication  Modest Mouse

e|---------------------------------------------------------------------------|


B|--2------------------------------------------------------------------------|


G|----2-1---1----------------------------------------------------------------|

D|--------2---2--4/5/4-------------------------------------------------------|
A|---------------------------------------------------------------------------|
E|---------------------------------------------------------------------------|
e|---------------------------------------------------------------------------|
B|--2---------0--------------------------------------------------------------|
G|----2-1---1----------------------------------------------------------------|
D|--------2-----4/5/4--------------------------------------------------------|
A|---------------------------------------------------------------------------|
E|---------------------------------------------------------------------------|
and I [D]do-o-o-on't [G]know
well [D]I could go away and you could wish that I had stayed or just
[G]stayed gone
and I [D]don't [G]know
and I [D]don't [G]know at all
so, [D]out of the context and [G]into what you meant
and you [D]know your reasons
you don't [G]know who you are but you know who you wanna be
[D]I-I-I [G]doooon't know
so you [D]go to the library to get yourself a book and you [G]look and you look
but you didn't find anything to read[D]
and I do-on't [G]know at all
3:15 - 3:41
No Guitar or Lyrics

3:42 - 4:48
Riff 1 (With Riff 2 thrown in occasionally instead)
left all my kinder parts rusting and peeling
that guy was complaining as he looked at the ceiling
my nose isn't that big it looks nothing like me
we're all doctors trading sadness for numbness
grass looks much greener but it's green-painted cement
the mayor's machines are there cleaning the pavement
you can't make dirt clean so we'll just lemon-scent it

Important: The song above is NOT stored on the Chordie server. The original song is hosted at www.guitaretab.com. Chordie works as a search engine and provides on-the-fly formatting. Chordie does not index songs against artists/composers will. To remove this song please click here.

Text color:
Chord color:
Chord grids: 
Font size:    
Page size: 

D G
variations - click chord images

Login - add to songbook

Transpose chords

Tuning

Rating click stars to rate

Layout
Accuracy

SHARE PAGE  




You need to log in to post comments