Guitar Tabs, Chords and Lyrics


The Way His Collar Falls  Saves The Day

[C]   Leif and [Em]I are on the [G]train to New [D]York,

[C]   Car t[Em]hirteen ninty - [G]ni - ei - ei[D]iiine.

[C]   There's a [Em]guy with a [G]quarter in his [D]ear
    And [C]I've seen [Em]Leif only [G]once in the [D]past two m[1]onths,
    Whoa [2]
[Em]   His hair is s[G]tickin' up a little in the [D]front
C (x) Em
Yeah, he's losing it just a bit

G D D~ D~
When I get home tonight I'll miss him, in Hampshire, yeah

[C]   His [Em]glass - [G]es, the way he [D]writes in purple [C]pen

    The [Em]way his [G]collar fa[D]lls to the le[C]ft
    [Em]         [G]         [D]       [C]         [Em]     [G]    [D]                  [C]        
    Have you seen his ankles late - layyyyyy - ay - ay - ay - e-yeah

    I know he's [D]next to me,[Em]   I feel his [G]sweater here
    But when I'm [C]sleepin' its only green [D]sheets
    And the hair down my le[3]gs
  [C]  Think I'll write you [D]Lief, when I'm [Em]here Tuesday
G D~ (4)
Sometime before you go, back on the train

[C]   Leif and [Em]I are on the [G]train to New [D]York,

[C]   Car t[Em]hirteen ninty - [G]ni - ei - ei[D]iiine.
[C]   There's a [Em]guy with a [G]quarter in his [D]ear
    And [C]I've seen [Em]Leif only [G]once in the [D]past two m[Em]onths
    His hair is s[G]tickin' up a little in the [D]front
C (x) Em
Yeah, he's losing it just a bit

    When I [G]get home tonight I'll [D]miss him, in Hamp[C]shire

    His hair is s[G]tickin' up a little in the [D]front
    Yeah, he's [C]losing it just a bi[Em]t
G D~
When I get home tonight I'll miss him.

==================================================================

--------

FILLS
--------



[1]                                                                         
e|--0-0-0--0-0-0--|
B|--1-1-1--1-1-1--|
G|--0-0-0--0-0-0--|
D|--2-2-2--2-2-2--|
A|--3-3-3--3-3-3--|
E|----------------|

[2]                                                                        
e|------------------------|
B|------------------------|
G|--------7~---7p4--------|
D|----4-5---------h5------|
A|--5---------------h5----|
E|---------------------0--|

[3] You can play this using the open G and C chords as
well, but it sounds like barre chords in the song
to me. Either way just follow this progression:

    [G]  [G]   [C]   [G]  [G]  [G]  [G]   [C]   [G]  [G]  [G]  [G]   [C]   [G]  [G]  [G]  [G]  [G]  [G]  [G]  [G]                      
e|--3-3--3--3-3-3-3--3--3-3-3-3--3--3-3-3-3-3-3-3-3--|
B|--3-3--5--3-3-3-3--5--3-3-3-3--5--3-3-3-3-3-3-3-3--|
G|--4-4--5--4-4-4-4--5--4-4-4-4--5--4-4-4-4-4-4-4-4--|
D|--5-5--5--5-5-5-5--5--5-5-5-5--5--5-5-5-5-5-5-5-5--|
A|--5-5--3--5-5-5-5--3--5-5-5-5--3--5-5-5-5-5-5-5-5--|
E|--3-3--3--3-3-3-3--3--3-3-3-3--3--3-3-3-3-3-3-3-3--|


[4] Notes with a "+" under them mean that they are very
staccato (short and not accented) so if you can't
play this piece as fast as Chris, exclude these notes.

Play this piece five times, and then on the sixth time
through, strum the last half of it.

e|------------------------------------------------|
B|--------3----------3----------------------------|
G|----4-----4----4-----4--------4-----------------|
D|-------------2---2--------5-----5----4---4h5p4--| x6
A|--3---3----------------------------5---5--------|
E|------------------------3---3-------------------|

] ] ]

Important: The song above is NOT stored on the Chordie server. The original song is hosted at www.guitaretab.com. Chordie works as a search engine and provides on-the-fly formatting. Chordie does not index songs against artists'/composers' will. To remove this song please click here.

Text color:
Chord color:
Chord grids: 
Font size:    
Page size: 

C D Em G
variations - click chord images

Login - add to songbook

Transpose chords

Tuning

Rating click stars to rate

Layout
Accuracy

SHARE PAGE  




You need to log in to post comments