Guitar Tabs, Chords and Lyrics


Nehalem   Everclear



Nehalem
As recorded by Everclear on "Sparkle and Fade" Lp
Tabbed by Steve Smith (sesmith3@eos.ncsu.edu)

um this song is VERY fast, it'll take practice to keep up with Art on this... good luck

intro
e|--------------------------------------------------------------
b|--------------------------------------------------------------
g|--0----------------------------12--------------9--11----9/7---
d|-------------------------13------------13---------------------
a|--------------------------------------------------------------
e|--------------12/---------------------------------------------

then right before the lyrics start
e|-------------------------------------------------------------------
b|-------------------------------------------------------------------
g|--9/---------------------------------------------------------------
d|--9/---------------------------------------------------------------
a|--7/---------------------------------------------------------------
e|-------------------------------------------------------------------
there is this rumor about
___________F#_____A____E
they say your leaving nehalem
A___________B_____A
ever since your baby died
G#______C#_________F#_____A
you been seen with another guy
__E________A____B_____A
whole damn town is talking now
G#__C#_____F#____A____E
they say your leaving nehalem
E___A______B________C
hey dont you want me to go
E___A______B________C
hey dont you want me to go
E___A______B________C
hey dont you want me to go
A___B______G___A
hey dont you want me

prechorus|
E_____A____B______G
tell me if you want me to go
A_____B____G______A
tell me if you want me to go...

over prechorus guitar2 plays
e|--------------------------------------------------------------
b|------------------------------12--12--12--12--12--------------
g|--13--13--13--13--13------------------------------------------
d|--------------------------------------------------------------
a|--------------------------------------------------------------
e|--------------------------------------------------------------

e|------------------------------------------------------------
b|------------------------------------------------------------
g|--13--13--13--13--13----------------------------------------
d|-----------------------------14--14--14--14--14-------------
a|------------------------------------------------------------
e|------------------------------------------------------------

comments?
as always
sesmith3@eos.ncsu.edu 

JASON'S EVERCLEAR TABS - http://members.tripod.com/~panec/


Important: The song above is NOT stored on the Chordie server. The original song is hosted at www.xguitar.com. Chordie works as a search engine and provides on-the-fly formatting. Chordie does not index songs against artists'/composers' will. To remove this song please click here.

This song is displayed as text-only. Transposing and tuning is only available for chordpro-songs.

Login - add to songbook

Rating click stars to rate

Layout
Accuracy

SHARE PAGE  




You need to log in to post comments