Guitar Tabs, Chords and Lyrics


The World at Large    Modest Mouse



Modest Mouse
World At Large

e|-------------------------------------------------------
B|-------------------------------------------------------
G|---11-11-11-11-11-11-11-11----10-10-10-10-10-10-10-10--
D|---11-------------------------11-----------------------
A|-------------------------------------------------------
E|-------------------------------------------------------

e|-------------------------------------------------------
B|-------------------------------------------------------
G|---8--------------------------6------------------------
D|---9-9-9-9-9-9-9-9------------8-8-8-8-8-8-8-8----------
A|-------------------------------------------------------
E|-------------------------------------------------------

                  (Guitar 1)
e|---------------------------------------------|
B|---------------------------------------------|   Play each cord
G|---11-11----10-10---8-8---6-6----------------|   8 times
D|---11-11----11-11---9-9---8-8----------------|
A|---------------------------------------------|
E|---------------------------------------------|


             (Guitar 2)
e|--------------------------------
B|----------11--------11----------
G|------11----11---11----11-------
D|---11----------11---------------
A|--------------------------------
E|--------------------------------

e|-------------------------------
B|---------11---------11---------
G|------10---10----10----10------
D|---11---------11---------------
A|-------------------------------
E|-------------------------------

e|-------------------------------
B|-------11-------11-------------
G|-----8----8---8----8-----------
D|---9--------9------------------
A|-------------------------------
E|-------------------------------

e|--------6--------6-------------|
B|-------------------------------|
G|-----6----6---6----6-----------|
D|---8--------8------------------|
A|-------------------------------|


Important: The song above is NOT stored on the Chordie server. The original song is hosted at www.xguitar.com. Chordie works as a search engine and provides on-the-fly formatting. Chordie does not index songs against artists'/composers' will. To remove this song please click here.

This song is displayed as text-only. Transposing and tuning is only available for chordpro-songs.

Login - add to songbook

Rating click stars to rate

Layout
Accuracy

SHARE PAGE  




You need to log in to post comments