Guitar Tabs, Chords and Lyrics


Doin' the Cockroach    Modest Mouse



Tabbed by Payton
About 95% Correct
Intro
e---------------------------------------------------
B---------------------------------------------------
G---7--7--------------------------------------------
D--9--9--9--7----7-----7-------------------------999  x6
A---------------9-----9---9---7------7---7-------999
E-----------------------------------9---9---9-7--777

Chorus
e---------------------------------------------------  \
B---------------------------------------------------   |
G-----8b9r8-------8b9r8----8b9r8-------8b9r8--------   |
D--99-------99999-------99-------99999--------------   |
A--99-------99999-------99-------99999--------------   |
E--77-------77777-------77-------77777--------------   |
                                                       |---- x3
e---------------------------------------------------   |
B---------------------------------------------------   |
G---------------------------------------------------   |
D--77777777--555555---------------------------------   |
A--77777777--555555---------------------------------   |
E--55555555--333333---------------------------------  /

Verse
e---------------------------------------------------
B---------------------------------------------------
G---------------------------------------------------
D-------4------4------4-----4------4-----4----------  x3
A-----5------5------5-----5------4----54---54----5-0
E--77-----77-----77-----77-----55-5-5---5-5--5-33---

Guitar part that starts at 2:11
e----------------------------------------------------
B----------------------------------------------------
G-11-xx-7x-9x-77-444-22------------------------------
D-9--xx-7x-9x-77-444-22------------------------------ Do until 3:43 palm mute every other three times
A-9--xx-5x-7x-55-222-00------------------------------
E----------------------------------------------------



Important: The song above is NOT stored on the Chordie server. The original song is hosted at www.xguitar.com. Chordie works as a search engine and provides on-the-fly formatting. Chordie does not index songs against artists'/composers' will. To remove this song please click here.

This song is displayed as text-only. Transposing and tuning is only available for chordpro-songs.

Login - add to songbook

Rating click stars to rate

Layout
Accuracy

SHARE PAGE  




You need to log in to post comments