Chordie logo


Take Our Cars Now!    Saves The Day



-------------------------------------------------------------------------------
SAKE OUR CARS NOW - Saves The Day
-------------------------------------------------------------------------------

Feel free to email me for any suggestions,
corrections, or just whatever. take it easy.

By: Danny Bligh (hecklerdanny@aol.com

intro
e|------------------------------------------------------------------------------------------|
B|--1----1----------1-----1----1----------1-----1----1----------1-----1----1----------1-----|
G|--0h2--0-------0--------0h2--0-------0--------0h2--0-------0--------0h2--0-------0--------|
D|----------0h2-------------------0h2-------------------0h2-------------------0h2--------3--|
A|---------------------3---------------------0---------------------3------------------------|
E|------------------------------------------------------------------------------------------|

verse
e|--------(1)--|
B|--1--3---1---|
G|--0--0---2---|
D|--2--0---3---|
A|--3--2---3---|
E|-----3--(1)--|

chorus
e|--(0)-------1--|
B|---1--1--3--1--|
G|---2--0--0--2--|
D|---2--2--0--3--|
A|---0--3--2--3--|
E|---------3--1--|

interlude
e|--1--3--|
B|--1--3--|
G|--2--0--|
D|--3--0--|
A|--3--2--|
E|--1--3--|

well that should pretty much do it. i dont think i forgot any parts. have
fun with it!


Important: The song above is NOT stored on the Chordie server. The original song is hosted at www.xguitar.com. Chordie works as a search engine and provides on-the-fly formatting. Chordie does not index songs against artists/composers will. To remove this song please click here.

This song is displayed as text-only. Transposing and tuning is only available for chordpro-songs.

Login - add to songbook

Rating click stars to rate

Layout
Accuracy

SHARE PAGE  




You need to log in to post comments