Guitar Tabs, Chords and Lyrics


A Change Would Do You Good   Sheryl Crow



Sheryl Crow/ A change would do you good.
Tabbed by Jeremy Bowen cct1984@aol.com.


" A Change would do you good "  By Sheryl Crow
Transcribed by Jeremy Bowen (cct1984@aol.com)

e----x---x---x---x----x---x---x----x---x----
b----x---x---x---x----x---x---x----x---x----
g---10--10---8--10--10---8--10---8---5-----  Repeat
d---10--10---8--10--10---8--10---8---5-----
a----8---8---6---8----8---6---8----6---3-----
e----8---8---6---8----8---6---8----6---3-----

Pre-Chorus (If you willÂ…):  Palm muted
e----x------------x---x---------x---x---x-/--x--
b----x------------x---x---------x---x---x-/--x--
g----3------------3---3---------3---3---3-/--5--
d----3------------3---3---------3---3---3-/--5--
a----1------------1---1---------1---1---1-/--3--
e----1------------1---1---------1---1---1-/--3--
Repeat beginning immediately after Pre-Chorus
e----x---x---x---x---x---x---------------------
b----x---x---x---x---x---x---------------------
g----8---7---5---7---3---5---------------------
d----8---7---5---7---3---5---------------------
a----6---5---3---5---1---3---------------------
e----6---5---3---5---1---3---------------------
Repeat beginning once again.
"Solo":
e---------------------------------------------------
b---------------------------------------------------
g----/-8--10--10--10-10/12p8---------------
d---------------------------------------------------
a---------------------------------------------------
e---------------------------------------------------

e----------------------------------------------------
b----------------------------------------------------
g--10--10--10--10/12--8--5---------------------
d----------------------------------------------------
a----------------------------------------------------
e----------------------------------------------------

e----------------------------------------------------
b--11--11--11--11/-9-9-9-9/-8-8-8h9----------
g----------------------------------------------------
d----------------------------------------------------
a----------------------------------------------------
e----------------------------------------------------



e----------------------------------------------------
b----------------------------------------------------
g--9/10--10--8--8-7h8p7--5-------------------
d----------------------------------------------------
a----------------------------------------------------
e----------------------------------------------------

e----------------------------------------------------
b----------------------------------------------------
g-9p8p6-x3----9/11--13--13--13-----------
d----------------------------------------------------
a----------------------------------------------------
e----------------------------------------------------

e----------------------------------------------------
b----------------------------------------------------
g--15--15--15--16--16--16--18--18--18-------
d----------------------------------------------------
a----------------------------------------------------
e----------------------------------------------------

e---------------------------------------------------
b---------------------------------------------------
g--10~ -h12b--8--/--13 ~ -- 16~ --18 ~ ~ ~--
d---------------------------------------------------
a---------------------------------------------------
e---------------------------------------------------

This is all I have for you, I do not have the
strumming patterns on the part before the
solo, but I believe if you are good you will
figure it out.




:: Ultimate Guitar Archive ::


Important: The song above is NOT stored on the Chordie server. The original song is hosted at www.xguitar.com. Chordie works as a search engine and provides on-the-fly formatting. Chordie does not index songs against artists/composers will. To remove this song please click here.

This song is displayed as text-only. Transposing and tuning is only available for chordpro-songs.

Login - add to songbook

Rating click stars to rate

Layout
Accuracy

SHARE PAGE  




You need to log in to post comments