Guitar Tabs, Chords and Lyrics


Foolish Fool  Sublime

      [A]                                                       [C#m]                        
e-------------5----------5---------------------------------------4-------
b-------------5----------5--------------------------------------5--------
g--------6----------6------------------------------------------6---------
d--------7----------7-----------------------------------------6----------
a--------7----------7---------------------------3---4-------4------------
e---5---------------------------5---5-----0------------------------------

Crazy Crazy Crazy Fool
   [C#m]        [Cm]     [Bm]                                                                                            
-------4----3----2------2---2---2---2---2--
-------5----4----3------3---3---3---3---3--
-------6----5----4------4---4---4---4---4--
-------6----5----4------4---4---4---4---4--
-------4----3----2------2---2---2---2---2--
-------------------------------------------

Cra -
                               [A]                                                                                      
-----2---2---2---2---2---------5---5---5---5---5---5---5--------
-----3---3---3---3---3---------5---5---5---5---5---5---5--------
-----4---4---4---4---4---------6---6---6---6---6---6---6--------
-----4---4---4---4---4---------7---7---7---7---7---7---7--------
-----2---2---2---2---2---------7---7---7---7---7---7---7--------
-------------------------------5---5---5---5---5---5---5--------

- zy Fool
I[A]f he thinks he's gonna take y[E]ou from me, hes gotta be a c[D]razy crazy crazy
[C#m]crazy fool          [C#m]     [Cm]     [Bm]  Cra   -     zy        [A]Fool[A] [G#] [F#]
RIFF1(*)---------------------14-
        ---------------------14-
        ------------------------
        ------------------------
        -----0-0h2-0------------
        -0-2---------2-0-2------

F# (*)
My love for you is oh so strong
F# (*)
WE've been together for oh so long
F# (*)
Now im down in this misery
[F#]    [F]   [E]   Is  this this the way loves s'posed to be?
-----------------------------------------------------------------


Important: The song above is NOT stored on the Chordie server. The original song is hosted at www.xguitar.com. Chordie works as a search engine and provides on-the-fly formatting. Chordie does not index songs against artists'/composers' will. To remove this song please click here.

Text color:
Chord color:
Chord grids: 
Font size:    
Page size: 

A Bm C#m Cm D E F F# G#
variations - click chord images

Login - add to songbook

Transpose chords

Tuning

Rating click stars to rate

Layout
Accuracy

SHARE PAGE  




You need to log in to post comments