Guitar Tabs, Chords and Lyrics


Doin' Time (Uptown Dub)  Sublime

[Gm]evil i've c[C]ome to tell you that she's[Gm] evil most [C]definitely
[Gm]evil ome[C]ry scandalous an[Gm]d evil d[C]efinately
[Gm]the tension [C]is gettin ho[Gm]tter [C]i'd li[Gm]ke to hold he[C]r head u[Gm]nderwate[C]r
C (strike 5 times) A, D & let ring
Ohhhhhh
BREAK
[Gm]Ohh as t[C]he livin's easy [Gm] on the microphone with [C]ras m.g.
[Gm]in the dance it'[C]s agreed that we're
[Gm]qualified to rep[C]resent the LBC
Instrumental (Chrods) Gm-C x4 A D Gm-C x12
C (strike 5 times) A, D & let ring
Gm-C x4 lazy strumming
Riff that goes near the end (over the chords)
e--15---15------------------------------------------------------------------
B----------18--15-15-13-----------------------------------------------------
G-----------------------14b12-----------------------------------------------
D---------------------------------------------------------------------------
A---------------------------------------------------------------------------
E---------------------------------------------------------------------------

Gm-C repeat
End Riff
e---------------------------------------------------------------------------
B---------------------------------------------------------------------------
G------7--5--3-3--2h3p2-----------------------------------------------------
D---5--------------------5--------------------------------------------------
A---------------------------------------------------------------------------
E---------------------------------------------------------------------------
----------------------------------------------------------------------------


Important: The song above is NOT stored on the Chordie server. The original song is hosted at www.xguitar.com. Chordie works as a search engine and provides on-the-fly formatting. Chordie does not index songs against artists'/composers' will. To remove this song please click here.

Text color:
Chord color:
Chord grids: 
Font size:    
Page size: 

C Gm
variations - click chord images

Login - add to songbook

Transpose chords

Tuning

Rating click stars to rate

Layout
Accuracy

SHARE PAGE  




You need to log in to post comments