Guitar Tabs, Chords and Lyrics


Under My Voodoo   Sublime



Band: Sublime
Song: Under My Voodoo
Album: Self-titled
Tabbed By: Mike Theobald
Comments: If you have any suggestions, corrections or comments, Mail Me 
    and I'll do what I can.  Thanx.
Tuning: Standard (EADGBE) 

Intro:
E|----------------------------------------------------
B|----------------------------------------------------
G|----9-11b-9-~~--------------------------------------
D|-11---------11-9-7-9b-7---~-------------------7h9-7-
A|------------------------7h9-9-7-7h9-9-7-7h9-9-------
E|----------------------------------------------------

Verse:
E|----------------------------------------------------
B|--------------------------------------------------~~
G|-14bb-12-------------12-~~------------12----12-12h14
D|--0------14-14-12-14----14-12-14-14bb-12-~~---------
A|-----------------------------------------14---------
E|----------------------------------------------------

e|--------------------------------------------------
B|-----------------------------------------~~-------
G|----------12-------~~-------12-14-14b-14-12----12-
D|-12-14-12----14-12h14-12-14-----------------14----
A|--------------------------------------------------
E|--------------------------------------------------

E|----------------------------------------
B|----------------~------------3-5--------
G|-14-12-14-14b-14b-14b\-2-2h4------------
D|---------------------------------2-4-4/7
A|----------------------------------------
E|----------------------------------------

E|------------------------------------------------
B|-------------8-x-x-x-x-x------------------------
G|---------7-9---x-x-x-x-x-9-9-9-7-9-7-9bb-7---7-9
D|-5-7-7/9-------x-x-x-x-x-------------------9----
A|------------------------------------------------
E|------------------------------------------------

E|-----------------------------------------------------
B|-8-8-------------8-------8-8-----8-8-8-8---8-8-------
G|-----9-7-9-0-9-7---7-7-9-0-0-7-7-0-------9-0-0-0-0-0-
D|-----------------------------------------------0-0-0-
A|-----------------------------------------------------
E|-----------------------------------------------------

Chorus:
E|---------2-----1---------3-3-------------------------
B|---------2-----1---------3-3---------------------~~~~
G|-4-4-4---x-----x---------4-4-4-4-4-4-----6-6/8-8-9---
D|-5-----5-4-4-3-3-/-9-----5---------------7-7/9-9-9---
A|-5-------4-4-3-3-/-7-----5-----------5/7-7-7/9-9-7---
E|-3-------------------15\-3-----------3/5-5-5/7-7-----

Verse:
E|-----------------------------------------------------------
B|-~----------------------------8---~-x-x-x------------------
G|-9-7---7-9----------x-x-9-7-9---9-9-x-x-x-9-7-9-7-------7-9
D|-----9-----9\7-5-~~-----------------x-x-x---------9-7-9----
A|-----------------7-----------------------------------------
E|-----------------------------------------------------------

E|------------~----------------------------------~-------------~
B|-~~-8---/10-8---------~---8-----8---------8-10bb------------13
G|-9----9-------9-7h9-9-9-9---9-7---9-----7--------x------------
D|------------------------------------7h9----------0-14-12-14---
A|--------------------------------------------------------------
E|--------------------------------------------------------------

E|-----------------------------------------
B|----------12-----------------------------
G|-12-12----12-12-12-14------12------------
D|-------12-------------0-------14---------
A|----------------------0-12-------14-14-12
E|-----------------------------------------

E|------------------------------------------------------
B|----------------------------------------------------12
G|-14-12-------14-12-14-14-12-14-12----12----12-14-14---
D|-------14-14----------------------14----14------------
A|------------------------------------------------------
E|------------------------------------------------------

E|---------------------------------------
B|-------------------12-12-12-------12-0-
G|-14-14-12----12-14-------------12-12-0-
D|----------14----------------14---------
A|---------------------------------------
E|---------------------------------------

Chorus: Same as 1st one
Solo:
E|-15b-15b-15-12----12----12----12------------------------
B|---------------15----15----15----12h14------------------
G|---------------------------------------12h14p12-12-12-~~
D|------------------------------------------------------14
A|--------------------------------------------------------
E|--------------------------------------------------------

E|--------------------------------------------------------
B|--------------------------------------12-------12-12-12-
G|-----12-14-12-------12-12-12----------12-------12-12-12-
D|---0----------14-12----------14-0--------12-12----0--0--
A|-0------------------------------0-0-0-------------------
E|--------------------------------------------------------

E|----------------------------------------------------------0
B|----0-0-0-0-0-12b-12----~----0-12b-12b-12-10--------------0
G|-12-0----------------11-9--------------------11-11-9-9-~~--
D|--------------------------11---------------------------11--
A|-----------------------------------------------------------
E|-----------------------------------------------------------

E|------------------------------------------------------------------
B|------------------------------------------------------------------
G|-19b-17-19b-17-19b-19b-19b-19b-19b-19b-19b-19b-19b-19b-19b-19b----
D|-------------------------------19b-----19b-19b-19b-19b-19b-19b----
A|------------------------------------------------------------------
E|---------------------------------------------------------------15\

E|---0-0-------2-------------------3-0---3-----------------
B|---0-0-0-0---2-------------------0-0-0-0-0---------------
G|-0-0-0-0-0---3-3-2-2-2/-~~-0---0-0-0-0-0-0-6-6-----------
D|-0---------4-4-4-3-3-3/-9----0-0-----------7-7--------9-\
A|-x---------4-4-4-3-3-3/-7--------------------7-/9-x-x-7-\
E|-3-----------2-----1-------------------------5-/7-x-x----

Rest Of Song
E|-7-
B|-8-
G|-9-
D|---
A|---
E|---



Important: The song above is NOT stored on the Chordie server. The original song is hosted at www.xguitar.com. Chordie works as a search engine and provides on-the-fly formatting. Chordie does not index songs against artists'/composers' will. To remove this song please click here.

This song is displayed as text-only. Transposing and tuning is only available for chordpro-songs.

Login - add to songbook

Rating click stars to rate

Layout
Accuracy

SHARE PAGE  




You need to log in to post comments