Guitar Tabs, Chords and Lyrics
Major upgrade!! After one year development the new version of Chordie is now online! Please give feedback.


When Worlds Collide   Powerman 5000

 
 |12---|10---|12---|10---|12---|10---|9----|8----|
 |-----|-----|-----|-----|-----|-----|-----|-----|
 |9----|7----|9----|7----|9----|7----|6----|5----|
 |-----|-----|-----|-----|-----|-----|-----|-----|
 |-----|-----|-----|-----|-----|-----|-----|-----|
 |-----|-----|-----|-----|-----|-----|-----|-----|

 


 


 Then some pick slides for half measure.


 


 1st verse:synth bass arr for guitar


 e E E E E E e E e E e E E E e E


 

 
 |--------------------------------|
 |--------------------------------|
 |--------------------------------| This riff X3
 |--------------------------------|
 |--4-4-4-4-----------------------|
 |----------3---3---3---3-1-3---3-|

 


 


 e E E E E E e E Q q q q


 

 
 |-----------------------|
 |-----------------------|
 |-----------------------|
 |-----------------------|
 |--4-4-4-4--------------|
 |----------3---3s0------|

 


 


 e E E E E E q w


 

 
 |-------------|--------------|
 |-------------|--------------|
 |--6-6-6-6----|--------------| This riff X3
 |--5-5-5-5----|--------------|
 |--4-4-4-4----|--------------|
 |----------3--|--------------|

 


 e E E E E E q q e E E E E E


 

 
 |-------------|--------------|
 |-------------|--------------|
 |--6-6-6-6----|--------------|
 |--5-5-5-5----|--------------|
 |--4-4-4-4----|----5-3-5-3-5-|
 |----------3--|----3-1-3-1-3-|

 


 


 Chorus


 e E e E E E E E


 

 
 |----------------| After 1st time through, play again with
 |----------------| the fill instead of the first ending.
 |----------------| This riff X3 When the chorus is played with the first
 |----------------| ending, play it again and do the same
 |--5---5-3-5-3-5-| for the second ending. (I'm trying to
 |--3---3-1-3-1-3-| make this dummy-proof)

 


 First Time Play This. Second Time Play This.


 e E e E E E Q q e E E E Q


 

 
 |--------------| |------------|
 |--------------| |------------|
 |--------------| |------------|
 |--------------| |----5-3-5s8v|
 |--5---5-3-5-8-| |------------|
 |--3---3-1-3-6-| |------------|

 


 


 2nd verse


 e E E E E E q


 

 
 |--------------|
 |--------------| + Whole Measure Rest Take this X2
 |--6-6-6-6-----|
 |--5-5-5-5-----|
 |--4-4-4-4-----|
 |----------3---|

 


 


 e E E E E E (E.) S (E.) S (E.) S (E.) S (E) e


 

 
 |----------------------------------------------|
 |----------------------------------------------|
 |--6-6-6-6-------------------------------------|
 |--5-5-5-5-------------------------------------|
 |--4-4-4-4-------------------------------------|
 |----------3-(3)--b-(3)--b-(3)--b-(3)--b-(3)---|

 


 


 Then do the first second verse part once more.


 


 Play these second verse parts:First part, Second Part, Third part, Repeat


 


 Play the chorus again but the last measure is a little bit different.


 e E e E E E Q


 

 
 |----------------|
 |----------------|
 |----------------|
 |----------------|
 |--5---5-3-5-----|
 |--3---3-1-3-0---|

 


 Palm Mute .


 


 Interlude:


 


 S S S S S e. q q S S S S S e. q q S S S S S e. q q S S S S S e. q q


 

 
 |--------------------------------------------------------------------|
 |--------------------------------------------------------------------|
 |--------------------------------------------------------------------|
 |--------------------------------------------------------------------|
 |7-7-7-7-7--------5-5-5-5-5--------4-4-4-4-4--------3-3-3-3-3--------|
 |--------------------------------------------------------------------|

 


 . . . . . . . . . . . . . . . . . . . .


 Palm Mutes


 


 N.C. With delay


 e E E E E E e E w


 

 
 |------------------------|
 |------------------------|
 |------------------------| X4
 |------------------------|
 |------------------------|
 |--3-1-3-1-3---3---------|

 


 


 Verse Three


 


 Play the synth bass part twice and then play


 


 

 
 |-------------|
 |-------------|
 |--6-6-6-6----| +one measure rest. TWICE
 |--5-5-5-5----|
 |--4-4-4-4----|
 |----------3--|

 


 


 Play the chorus twice.


 


 Then play this ending


 


 E E E E E E E E E E E E E E E E e E e E E E E E


 

 
 |----------------------------------------------------------------|
 |----------------------------------------------------------------|
 |----------------------------------------------------------------|
 |----------------------------------------------------------------|
 |11-11-11-11-11-11-11-11-10-10-10-10-10-10-10-10---5---5-3-5-3-5-|
 |9--9--9--9--9--9--9--9--8--8--8--8--8--8--8--8----3---3-1-3-1-3-|

 


 . . . . . . . . . . . . . . . .


 Palm Mutes


 e E e E E E Q


 

 
 |----------------|
 |----------------|
 |----------------| This twice.
 |----------------|
 |--5---5-3-5-8---|
 |--3---3-1-3-6---|

 


 


 Then finally after last measure of the repeat.


 


 [(B)] [(B)]  

 
 |----------|
 |----------|
 |----------|
 |----------| FIN!


Important: The song above is NOT stored on the Chordie server. The original song is hosted at www.guitaretab.com. Chordie works as a search engine and provides on-the-fly formatting. Chordie does not index songs against artists'/composers' will. To remove this song please click here.

This song is displayed as text-only. Transposing and tuning is only available for chordpro-songs.
Rate #3 of 4 versions

Login - add to songbook

SHARE PAGE  




You need to log in to post comments