Guitar Tabs, Chords and Lyrics
Major upgrade!! After one year development the new version of Chordie is now online! Please give feedback.


Call Me on Your Way Back Home  Ryan Adams

Capo 3rd finger picking
intro
[Am]  
 
 --0--------------| X 3
 --1-0h1----------|
 --2-----2p0------|
 --2---------2p0--|
 -----------------|
 -----------------|

Verse
[Am]  
 
 --0---------------|
 --1-0h1----1------|
 --2---------------| oh baby why
 --2---------------|
 --------0h2-2/3---|
 ------------------|

[C]  
 
 -------------------|
 ---1-----1-----1---|
 ----0-----0-----0--|
 -----2-----2-----0-| do i miss u like i do
 --3----------------|
 --------3-----1----|

[C]  
 
 --------------------|
 ---1-----1------1---|
 ----0-----0------2--|
 -----2-----2---3--3-| oh miss my sweet
 --3-----------------|
 --------3-----------|

[C]  
 
 -------------------|
 ---1-----1-----1---|
 ----0-----0-----0--|
 -----2-----2-----0-| when the birds are singing blue
 --3----------------|
 --------3-----1----|
 ----------------------|
 ----------1---1---1---|
 -----------0---0---0--| and why
 --3-2-0--0---0---0----|
 ----------------------|
 ----------------------|
 ----------------------|
 ----------------------|
 ---1--1----1--1-------| why
 ----2--2----2--2------|
 -----3-------3--------|
 -0--------0-----------|

[C]  
 
 -------------------|
 ---1-----1-----1---|
 ----0-----0-----0--|
 -----2-----2-----0-| call me on your way back home dear
 --3----------------|
 --------3-----1----|

[Am]  
 
 -----------------------|
 ---1----1---1---1------|
 ----2----2---2---2-----| cos i miss u
 -----2----2---2---2----|
 --0--------------------|
 -----------------------|
 -------------------------|
 -------------1---111-----|
 -------------0---000-----|
 ---0h2-------0h2-222-----| honey i aint nothing new
 -------------3---333-----|
 --------1---33---333-----|

second verse same
 
 --------|

--1-1-1-|
--0-0-0-| X3
--2-2-0-| im just gonna die without you
--3-3-0-|
 
 ----3-1-|
 ----------------------|
 ----------1---1---1---|
 -----------0---0---0--| without you
 --3-2-0--0---0---0----|
 ----------------------|
 ----------------------|
 -------------------------|
 -------------1---111-----|
 -------------0---000-----|
 ---0h2-------0h2-222-----| honey i aint nothing new
 -------------3---333-----|
 --------1---33---333-----|

Outro
 
 ------------- ----|
 --1--1--1--1- -11-|
 --2--0--2--0- -00-| listen for strumming
 --2--2--3--0- X 2 -22-|
 -----3-----2- -33-|
 -----------3- -33-|

ryan adams is god
Peace
Rob Proud

Important: The song above is NOT stored on the Chordie server. The original song is hosted at www.guitaretab.com. Chordie works as a search engine and provides on-the-fly formatting. Chordie does not index songs against artists'/composers' will. To remove this song please click here.

Text color:
Chord color:
Chord grids: 
Font size:    
Page size: 

Am C
Rate #2 of 4 versions

Login - add to songbook

SHARE PAGE  




You need to log in to post comments